Oops, an error
Loading. Please wait.

Marie Hsiao - Against The Current Tab

11,077 views 3 this week
no commentswrite comment
1 2 3 4 5
accurate
x 3
add to favorites
launch autoscroll
font size
0
reset
how to read this tab
guitar tuner
Tab Pro tools
  • play this tab
  • loop segment
  • change instrument
  • show fretboard
  • metronome
Autoscroll
slow
fast
+/-
esc
set tempo
stop
Contributor
Difficulty
intermediate
Against the Current
Mree (Marie Hsiao)



Tuning: EADGBE
Capo: 2nd Fret

Intro:   
  C                           Am                        F maj7             F mmaj(Minor Major 7th)

e|------------------------------------------------------0---------0---------0-------0-----|
B|--1-------1------1-------1---0---------0h1----------------1---------1-------1-------1---|
G|------0-----0--------0-----0-----2-------------2--------2---2-----2---2-------1-------1-|
D|----2--------------2-----------2---2---------2---2----3-------3-3-------3-3-----3-------|
A|--3-----3-----3--3-----3-----0-------0-0-----------0------------------------------------|
E|----------------------------------------------------------------------------------------|

                        C                          Am                  

e|----0-------0---------------------------0--------------------------------|
B|------1-------1-------1-------1-----1-------3---1-0---------0h1----------|
G|--------1-------1---------0-----0---------------------2------------2-----|
D|--3-3-----3-------3-----2-------------2---2---2-----2---2--------2---2---|
A|----------------------3-----3-----3-3---3---3---3-0-------0-0----------0-|
E|-------------------------------------------------------------------------|
   Fmaj7               Fmmaj7
e|--0---------0---------0-------0-|
B|------1---------1-------1-----1-|
G|----2---2-----2---2-------1---1-|
D|--3-------3-3-------3-3-----3-3-|
A|--------------------------------|
E|--------------------------------|



Verse:
   C                        Am                         F maj 7               
e|------------------------------------------------------0-------0---0-------0--|
B|--1-------1---1-------1-----1-------1---1-------1-------1-------1---1-------1|
G|------0-----0-----0-----0-----2-------2---2-------2-------2-----------2------|
D|----2-----------2---------------2-----------2---------3-----3-----3-----3----|
A|--3-----3-----3-----3-------0-----0-----0-----0------------------------------|
E|-----------------------------------------------------------------------------|
   Fmmaj7
e|--0-------0---0-|
B|----1-------1-1-|
G|------1-------1-|
D|--3-----3-----3-|
A|----------------|
E|----------------|



Chorus:
   Fmaj7         G         C
e|----------1---------3-----------------------------|
B|--1---1-----2---3-----3---1-------1---0h1----1----|
G|----2-------------0-----------0-----2------0---0--|
D|--3-----3-------------------2---------------------|
A|--------------------------3-----3-----3----------3|
E|----------------3---------------------------------|
   Fmaj7         G         c           Am
e|----------1---------3-----------------------------|
B|--1---1-----2---3-----3---1-------1---0h1----1----|
G|----2-------------0-----------0-----2------2---2--|
D|--3-----3-------------------2---------------------|
A|--------------------------3-----3-----3----------0|
E|----------------3---------------------------------|
   Fmaj 7     E7b9               Fmaj7 Fmmaj7/C
e|------------------------------------0--1----------------------------|
B|--1---1------3-----3---1------------1--1-----1-------1---1-------1--|
G|----2---2------1-----1-----0-----0--2--1---------0-----0-----0-----0|
D|--3---3---3--3---3-------2-----0----3--3-------2-----------2--------|
A|-----------------------3-----2---------------3-----------3----------|
E|---------------------------------------------------3-----------3----|            




e|----------------|
B|--1-------1---1-|
G|------0-----0---|
D|----2-----------|
A|--3-----------3-|
E|--------3-------|






Bridge:
   Am           Em            Fmaj7        C     B7#9
e|---------------------------------------------------|
B|--1-------1----0-------0----1---1---1----1--------3|
G|------2-----2------0-----0----2-------2------0----2|
D|----2------------2----------3-----3--------2-------|
A|--0-----0--------------------------------3------2--| x4
E|---------------0-----0-----------------------------|
   Fmaj7                      E7b9
e|------------------------------------------------------|
B|--1---1---1----1---1---1----3---3---3---3---3---3----3|
G|----2-------2----2-------2----1-------1---1-------1—1-|
D|--3-----3------3-----3------3-----3-----3-----3------3|
A|------------------------------------------------------|
E|------------------------------------------------------|





Lyrics:
So they say
There are other fishes in the sea
But the only one that's missing
is the one that swims for me.
And so you say,
"Oh dear just wait patiently,
Love will come along, eventually."

So I tried to swim against the current
To live my life and let me be
So don't cast me a line 
'cause I've run out of time
To live a lie

I can't deny
You've hooked me so deep again
With your smart and witty lines
You have soiled my disguise 
and then the waves
oh the waves they come crashing down
when I see the look in your eyes
when you're watching her walk by

"If you're looking to fit in then join the rest
'Cause you know you'll only end up second best"
They said,

If you want to swim against the current,
then act and speak the way we do
You may be untrue 
but if you'd rather be us
Then why be you.

What a beautiful lie, to live.

So I've learned to swim against the current
To live my life and now I'm free
Because honestly,
there's no one else I'd rather be.
So watch me leave
comments
We did not receive enough feedback on this tab! Please rate:
print report bad tab
1 2 3 4 5
I want to post or [tab]
guest
You may want to rate the tab now too:
select rating
Please do not post tabs as comments. Select "correction" instead!