Oops, an error
Loading. Please wait.

Mariee Sioux - Wild Eyes Tab

4,902 views 15 this week
no commentswrite comment
1 2 3 4 5
please rate
add to favorites
launch autoscroll
font size
0
reset
how to read this tab
guitar tuner
Autoscroll
slow
fast
+/-
esc
set tempo
stop
Help us to improve Ultimate-Guitar.com Take our survey!
×
Author
Difficulty
Capo
intermediate
2nd fret
Mariee Sioux
Wild Eyes

   by lopsang


Tuning : Standard
Capo 2

chords / accords :

  Bm(1)  Bm(2)   A    E    D    G
e|--0------2-----0----0----2----3--
B|--3------3-----2----0----3----0--
G|--4------4-----2----1----2----0--
D|--4------4-----2----2----0----0--
A|--0------2-----0----2----X----2--
E|--X------X-----0----0----X----3--


Intro et picking 1 :

   Bm1         Bm2           A                         E
e|---------0---2-------2---|-------------0-------0---|-------------------------|
B|-3-----------------------|-2-------2---------------|-0-------0---0-------0---|
G|-----4-----------4-------|-----2-----------2-------|-----1-----------1-------|
D|---4-------4---4-------0-|---2-------2---2-------0-|---2-------2---2-------0-|
A|-0-----0-----2-----2-----|-0-----0-----0-----0-----|-------------------------|
E|-------------------------|-------------------------|-0-----0-----0-----0-----|
                           ...   tiny  darling ...     ... ghost ...           

e|-------------------------|
B|-0-------0---0-------0---|
G|-----1-----------1-------|
D|---2-------2---2-------0-|
A|-------------------------|
E|-0-----0-----0-----0-----|
      ... older ...

puis :


   Bm1         Bm2           D                         E
e|---------0---2-------2---|-2-------3----2-------2--|-------------------------|
B|-3-----------------------|-------------------------|-0-------0---0-------0---|
G|-----4-----------4-------|-----2-----------2-------|-----1-----------1-------|
D|---4-------4---4-------0-|---0-------0---0-------0-|---2-------2---2-------0-|
A|-0-----0-----2-----2-----|-0-----0-----0-----0-----|-------------------------|
E|-------------------------|-------------------------|-0-----0-----0-----0-----|
               ... remember ... you ... ... could ...       ... weep ...       

e|-------------------------|
B|-0-------0---0-------0---|
G|-----1-----------1-------|
D|---2-------2---2-------0-|
A|-------------------------|
E|-0-----0-----0-----0-----|
      ... fire ...


   Bm1         Bm2           D                         A
e|---------0---2-------2---|-2-------3----2-------2--|---------0-----------0---|
B|-3-----------------------|-------------------------|-2-----------2-----------|
G|-----4-----------4-------|-----2-----------2-------|-----2-----------2-------|
D|---4-------4---4-------0-|---0-------0---0-------0-|---2-------2---2-------0-|
A|-0-----0-----2-----2-----|-0-----0-----0-----0-----|-0-----0-----0-----0-----|
E|-------------------------|-------------------------|-------------------------|
               ... remember ... you ... ... could ...       ... weep ...        

e|---------0-----------0---|
B|-2-----------2-----------|
G|-----2-----------2-------|
D|---2-------2---2-------0-|
A|-0-----0-----0-----0-----|
E|-------------------------|
  ... fire wild eyes ...



Picking 2 :

     G                         Bm1         Bm2
  e|-------------------------|---------0---2-------0---|-5-----------------------|
  B|-0-------0---0-------0---|-3-----------------------|---------8---7-------3---|
  G|-----0-----------0-------|-----4-----------4-------|-----0-----------0-------|
  D|---0-------0---0-------0-|---4-------4---4-------0-|---0-------0---0-------0-|
  A|-------------------------|-0-----0-----2-----2-----|-------------------------|
  E|-3-----3-----3-----3-----|-------------------------|-0-----0-----0-----0-----|
 ... ring .....            ... your ... ...cells  like  bells    in  a    garden



Picking 3 :

   Bm1         Bm2
e|---------0-----------2---|---------0-----------2---| x2
B|-3-----------3-----------|-3-----------3-----------|
G|-----4-----------4-------|-----4-----------4-------|
D|---4-------4---4-------4-|---4-------4---4-------4-|
A|-0-----0-----2-----2-----|-0-----0-----2-----2-----|
E|-------------------------|-------------------------|

e|---------0-----------0---|---------0-----------0---| x2
B|-2-----------2-----------|-2-----------2-----------|
G|-----2-----------2-------|-----2-----------2-------|
D|---2-------2---2-------0-|---2-------2---2-------0-|
A|-0-----0-----0-----0-----|-0-----0-----0-----0-----|
E|-------------------------|-------------------------|





(picking 1) 

Bm1  Bm2   A         E
      Tiny darling ghost holder 

Bm1  Bm2   A         E
      Tiny darling ghost holder 
Bm1  Bm2       A      E
      You our soft spirit breather and
Bm1  Bm2       A      E  
      You our bark skinned weaver
Bm1  Bm2     A         E
   Remember you could weep fire
Bm1  Bm2     D         E
   Remember you could weep fire
Bm1  Bm2     D         A
   Remember you could weep fire with wild eyes
           E      A               E
With wild eyes, oohoo those wild eyes


(picking 2) 

        G    Bm1  Bm2        A     G  F#   D
If you ring your cells like bells in  a  garden that
      G    Bm1   Bm2    A   G    F#   D
You plant your burdens way deep down in
      G    Bm1  Bm2    A    G      F#  D
And water them daily from wells of salty
  G       Bm1  Bm2  A  G F#   D     A
Guilt for sons who pollinate the deadly
           E      A               E
That wild eyes, oohoo that wild eyes


(picking 3) 

 Bm
Papa my pine whistler sparrow-eyed sun misser
 A
Papa my pine whistler sparrow-eyed moon blisser
 Bm
Mama my jaw clincher spirit mouthed ghost dancer
 A
Mama my vein braider thousand year bone burner
 Bm
Mama my tongue twister thousand pronged antlers
 A
Mama my tongue twister thousand pronged antlers
 Bm                                      A        E
Mama my vein braider thousand pronged antlers, antlers (picking 1)
  A             E      A             E    
ouhou her wild eyes, oohoo her wild eyes,  


(picking 2)

           G   Bm1  Bm2         A   G  F#  D
So I will ring my  cells like bells as youhou
 G      Bm1  Bm2   A  G F#    D    
Bind your father's molecules with 
  G   Bm1   Bm2   A     G    F#    D
roots of silver pierce him cedars with 
 G       Bm1  Bm2  A   G  F#  d     A
eyes like fingers picking bloody flowers (picking 1)
          E      A             E 
His wild eyes, ouhou his wild eyes, 


(picking 3) 

 Bm
Papa my pine whistler sparrow-eyed sun misser
 A
Papa my pine whistler sparrow-eyed moon blisser
 Bm
Mama my jaw clincher spirit mouthed ghost dancer
 A
Mama my vein braider thousand year bone burner
 Bm
Mama my tongue twister thousand pronged antlers
 A
Mama my tongue twister thousand pronged antlers
 Bm                                      A        E  
Mama my vein braider thousand pronged antlers, antlers  (picking 1)
  A             E      A             E
ouhou her wild eyes, oohoo her wild eyes


solo (as picking 2)


(picking 1)

Bm1  Bm2      A         E
       Tiny green moss collector
Bm1  Bm2      A         E
 Sweet tiny green moss collector
Bm1  Bm2     A          E
   Remember you could catch fire
Bm1  Bm2     D          E
   Remember you could catch fire 
Bm1  Bm2     D          A
   Remember you could catch fire with wild eyes
           E      A                    E
With wild eyes, oohoo with those wild eyes


(picking 2)

     G   Bm1  Bm2  A   G   F#   D
And once the river is rolling lower
        G    Bm1 Bm2  A    G   F#  D
We'll gather  lichen from the boulders
       G     Bm1 Bm2  A    G   F#  D
We'll keep it dry in-side our lockets
       G       Bm1  Bm2  A     G  F#  D
We'll put this town down into our pockets
       A
We'll try...


(picking like usual) G/G/G/G/Bm1/Bm2/Bm2/Bm2/A/A/A/A

     G
To leave these branch arms behind
Bm1  Bm2
The swaying hands of pines
         A   
Their needles tugging at your skin
  G                               Bm1  Bm2
Trying to pull you back deep in their wooden womb
                     A  
Of a hundred hearts hanging suspended, moth-eaten
  G
Those muscles the size of your fist
Bm1   Bm2
All floating around your head
   A
Not knowing who they're a loving
     G
Not knowing how fast they're a pumping
 Bm1 Bm2
Not knowing how hard they're a beating
     A
Not knowing who they're a punching
      G
Those muscles the size of your fist
Bm1  Bm2
All floating around your head
     A
And throwing punches like we throw the stones to
                     G
The bottom of river beds
      
Who knows whose next
Bm1  Bm2
To watch from under the currents
     A
The rapids rapidly raging while rapid
                                   G
While we're rapidly blinking our wild
Bm1 Bm2       A   G
    Our, our wi - ld,
Bm1 Bm2         A
our wild, wild eyes
          E
our wild eyes.





Une autre tab de cette voix ensorceleuse. J'espere que cela vous aidera.
Si vous avez des critiques, n'hesitez pas à me contacter à cette adresse :
lopsang@hotmail.fr



Another tab of this bewitching voice. Wish it can help you.
If you have any comments, don't hesitate to contact me at this adress: 
lopsang@hotmail.fr
Suggest correction
What's this?
You can suggest a correction to this tab. Community and Mods will review your correction and vote to approve or reject it.
comments
We did not receive enough feedback on this tab! Please rate:
print report bad tab
1 2 3 4 5
guest
You may want to rate the tab now too:
select rating
Please do not post tabs as comments. Select "correction" instead!