Oops, an error
Loading. Please wait.

Mariee Sioux - Wizard Flurry Home Tab

1,640 views 1 this week
no commentswrite comment
1 2 3 4 5
please rate
add to favorites
launch autoscroll
font size
0
reset
how to read this tab
guitar tuner
Tab Pro tools
  • play this tab
  • loop segment
  • change instrument
  • show fretboard
  • metronome
×
Best way to learn
"Mariee Sioux - Wizard Flurry Home"
Autoscroll
slow
fast
+/-
esc
set tempo
stop
Contributor
Difficulty
intermediate
Mariee Sioux - Wizard Flurry Home
	    
   by lopsang



chords used / accords utilises :

  Dm    C    G    G6   
e|-1----0----3----0------|
B|-3----1----0----3------|
G|-2----0----0----0------|
D|-0----2----0----0------|
A|-X----3----2----2------|
E|-X----X----3----3------|


tuning : standard
Capo 2 ou 3




intro :

  Dm		      C		         G
e|-------1----------|-------0----------|-------3----------------3-| 3x
B|---3---3----3---0-|---1---1----1---0-|---0---0----0---0---0---0-|
G|------------------|------------------|--------------------------|
D|-----0--------0---|-----2--------2---|-----0--------0-------0---|
A|-0--------0-------|-3--------3-------|--------------------------|
E|------------------|------------------|-3--------3-------3-------|
		

	 
picking 1 :

      Dm			C
e|----------------1-----------|-------------0-----------|
B|-0--3-------3-----------0---|-1-------1-----------1---|
G|--------2-----------2-------|-----0-----------0-------|
D|------0-------0---0-------0-|---2-------2---2-------0-|
A|-0--0-----0-----0-----0-----|-3-----3-----3-----3-----|
E|----------------------------|-------------------------|

   G			    G6
e|-------------------------------|
B|-0-----3-------3---3-------0---|
G|-----0-----0-----------0-------|
D|---0-----0-------0---0-------0-|
A|-------------------------------|
E|-3-----3-----3-----3-----3-----|



picking 2 :

   Dm          C             G
e|-------------------------|--------------------------|
B|-3-------3---1-------1---|-0-------0---0-------0----|
G|-----2-----------0-------|-----0-----------0--------|
D|---0-------0---2-------0-|---0-------0---0-------0--|
A|-0-----0-----3-----3-----|--------------------------|
E|-------------------------|-3-----3-----3-----3------|



picking 3 : solo after

                  Dm      C      G
             "oh, flur, flurry home"

      Dm			C
e|----------------1-----------|-------------0-----------|
B|-0--3-------3-----------0---|-1-------1-----------1---|
G|--------2-----------2-------|-----0-----------0-------|
D|------0-------0---0-------0-|---2-------2---2-------0-|
A|-0--0-----0-----0-----0-----|-3-----3-----3-----3-----|
E|----------------------------|-------------------------|

   G			    G6
e|--------------------------------------------------|
B|-0-------0---0--------0---3-------3---3-------0---|
G|-----0------------0-----------0-----------0-------|
D|---0-------0----0-------0---0-------0---0-------0-|
A|--------------------------------------------------|
E|-3-----3-----3------3-----3-----3-----3-----3-----|




Dm       C     G
 dance, dance, snow
Dm      C     G
flur, flurry home
  Dm        C     G
and dance, dance, snow
Dm      C     G
flur, flurry home


(picking 1 / arpeges 1)

     Dm       C     
oh, wizard, weave gold
 G     G6
wave, wave, wave your tidal
 Dm       C
wizard, pound your
 G   G6
mor, mor, mortar pestle
 Dm       C
wizard, weave gold
 G     G6
wave, wave, wave your tidal
 Dm       C
wizard, pound your
 G                  
mor, mor, mortar 


(picking 2)

   Dm  C     G
pestle-hu-huhu 
  Dm    C      G
oh, mortar pestle and
 Dm      C       G 
dance, dance in snow
     Dm     C     G       G
and flur, flurry home


(picking 1)
     Dm       C
and winter, love holds
  G      G6
crown, crown, crown your brothers
 Dm       C
winter, love snows
  G      G6
crown, crown, crown your mountains
 Dm       C     
winter, love holds
  G      G6
crown, crown, crown your mothers
 Dm       C
winter, love snows
  G                        
crown, crown, crown your 


(picking 2)
     Dm   C   G
mountain-ain-ains
   Dm       C        G
and dance, dance in snow
    Dm      C      G
and flur, flurry home
    Dm      C      G
oh, flur, flurry home


Dm/C/G x3 (picking 3)

(picking 1)
     Dm       C
and cocoon, bedspoon
   G     G6
i beg, i beg, i beg your pardon
 Dm        C
cocoon, bedspoon
   G     G6
i beg, i beg, i beg your pardon
 Dm        C
cocoon, monsoon
  G      G6
break, break, breaks the roof in
  Dm       C
cocoon, monsoon
     G                         
it break, break, breaks my heart 

(picking 2)
   Dm    C   G
in two - o - o
   Dm    C       G
in two, two, in two
    Dm          C        G
and it was two, oh, oh, five
    Dm       c       G
and so new, new, so new

(intro picking)
          Dm    C    G  
it was so new, new, new
Dm    C       G
new, new, so new


      G      G (low brush up on Gs)
and brown, brown

(picking 2)
     Dm            C
oh, brown knees, white bees'
 G
hum, hum, hum are missing
 Dm            C
brown knees, white bees'
 G
hum, hum, hum are missing
 Dm           C
could you p-lease
 G
turn, turn, turn to honey
 Dm           C
could you p-lease
 G
turn, turn, turn to morning
 Dm           C
could you p-lease
 G
turn, turn, turn tomorrow and
Dm          C          G
  turn our dance into ice
    Dm          C            G
oh, freeze our dance under lakes
  Dm           C      G
and turn our dance into ice
    Dm           C      G
oh, freeze our dance under lakes and
 Dm          C      G   G6
freeze our dance into snow-oh-angel pillows
 Dm          C      G   G6
freeze our dance into snow-oh-angel pillows











Pour découvrir au mieux son jeu de guitare, vous pouvez voir plusieurs videos
de ses lives sur internet (youtube, dailymotion...)
Si vous avez des critiques, n'hesitez pas à me contacter à cette adresse :
lopsang@hotmail.fr

To find her guitar's play, you may go on the net (youtube, dailymotion...)
If you have any comments, don't hesitate to contact me at this adress: 
lopsang@hotmail.fr



comments
We did not receive enough feedback on this tab! Please rate:
print report bad tab
1 2 3 4 5
I want to post or [tab]
guest
You may want to rate the tab now too:
select rating
Please do not post tabs as comments. Select "correction" instead!