Oops, an error
Loading. Please wait.

Mark Your Fall - Divide And Conquer Tab

72 views 1 this week
no commentswrite comment
1 2 3 4 5
2 more votes to show rating
add to favorites
launch autoscroll
font size
0
reset
how to read this tab
guitar tuner
Autoscroll
slow
fast
+/-
esc
set tempo
stop
Help us to improve Ultimate-Guitar.com Take our survey!
×
Author
Difficulty
Tuning
novice
D A D G B E
-------------------------------------------------------------------------------
                             Divide And Conquer
                             By: Mark Your Fall
-------------------------------------------------------------------------------
Tabbed by: rockjam222
Email: rockjam222@yahoo.com

This is my first tab and it is 100% right. I know it is because i know the people who 
this song.

Tuning: D,A,D,G,B,e


INTRO/VERSE: X2

Guitars I & II
0:00 - 0:17
e|-----------------------------------------------------0-0-------0------0-0-------0--|
B|-----------------------------------------------------0---0---0--------0---0---0----|
G|-------------------------------------------------2-2-2-----2------2-2-2-----2------|
D|--6-6-6-6-6-6-6-6-6-6-6-6-4-4-4-4-4-9-9-9-9-9-9--2-2-2------------2-2-2------------|
A|--6-6-6-6-6-6-6-6-6-6-6-6-4-4-4-4-4-9-9-9-9-9-9--0-0-0------------0-0-0------------|
D|--4-4-4-4-4-4-4-4-4-4-4-4-2-2-2-2-2-7-7-7-7-7-7------------------------------------|
PM                                                 . .              . .

CHORUS: X2

Guitar I
0:17 - 0:34
e|-----------------------------------------------------|
B|-----------------------------------------------------|
G|--666666666666666666666666-999999999999999999999999--|
D|--666666666666666666666666-999999999999999999999999--|
A|--444444444444444444444444-777777777777777777777777--|
D|-----------------------------------------------------|
PM

Guitar II
0:17 - 0:34
e|-----------------------------------------------------|
B|-----------------------------------------------------|
G|--666666666666666666666666-444444444444444444444444--|
D|--666666666666666666666666-444444444444444444444444--|
A|--444444444444444444444444-222222222222222222222222--|
D|-----------------------------------------------------|
PM

VERSE: X2

Guitar I
0:34 - 0:52
e|-----------------------------------------------------0-0-------0------0-0-------0--|
B|-----------------------------------------------------0---0---0--------0---0---0----|
G|-------------------------------------------------2-2-2-----2------2-2-2-----2------|
D|--6-6-6-6-6-6-6-6-6-6-6-6-4-4-4-4-4-9-9-9-9-9-9--2-2-2------------2-2-2------------|
A|--6-6-6-6-6-6-6-6-6-6-6-6-4-4-4-4-4-9-9-9-9-9-9--0-0-0------------0-0-0------------|
D|--4-4-4-4-4-4-4-4-4-4-4-4-2-2-2-2-2-7-7-7-7-7-7------------------------------------|
PM                                                 . .              . .

Guitar II
0:34 - 0:52
e|------------------------------------------------------0-0-------0------0-0-------0--|
B|------------------------------------------------------0---0---0--------0---0---0----|
G|--------------------------------------------------2-2-2-----2------2-2-2-----2------|
D|--6-6-6-6-6-6-6-6-6-6-6-6-4-4-4-4-4-11-9-9-9-9-9--2-2-2------------2-2-2------------|
A|--6-6-6-6-6-6-6-6-6-6-6-6-4-4-4-4-4-11-9-9-9-9-9--0-0-0------------0-0-0------------|
D|--4-4-4-4-4-4-4-4-4-4-4-4-2-2-2-2-2-9--7-7-7-7-7------------------------------------|
PM                                                  . .              . .

BRIDGE A: X1

Guitar I
0:52 - 1:00
e|-----------------------------------------------------|
B|-----------------------------------------------------|
G|--666666666666666666666666-999999999999999999999999--|
D|--666666666666666666666666-999999999999999999999999--|
A|--444444444444444444444444-777777777777777777777777--|
D|-----------------------------------------------------|
PM

Guitar II
0:52 - 1:00
e|-----------------------------------------------------|
B|-----------------------------------------------------|
G|---------------------------444444444444444444444444--|
D|---------------------------444444444444444444444444--|
A|---------------------------222222222222222222222222--|
D|-----------------------------------------------------|
PM

CHORUS: X1

Guitar I
1:00 - 1:09
e|-----------------------------------------------------|
B|-----------------------------------------------------|
G|--666666666666666666666666-999999999999999999999999--|
D|--666666666666666666666666-999999999999999999999999--|
A|--444444444444444444444444-777777777777777777777777--|
D|-----------------------------------------------------|
PM

Guitar II
1:00 - 1:09
e|-----------------------------------------------------|
B|-----------------------------------------------------|
G|--666666666666666666666666-444444444444444444444444--|
D|--666666666666666666666666-444444444444444444444444--|
A|--444444444444444444444444-222222222222222222222222--|
D|-----------------------------------------------------|
PM

VERSE: X2

Guitar I
1:09 - 1:27
e|-----------------------------------------------------0-0-------0------0-0-------0--|
B|-----------------------------------------------------0---0---0--------0---0---0----|
G|-------------------------------------------------2-2-2-----2------2-2-2-----2------|
D|--6-6-6-6-6-6-6-6-6-6-6-6-4-4-4-4-4-9-9-9-9-9-9--2-2-2------------2-2-2------------|
A|--6-6-6-6-6-6-6-6-6-6-6-6-4-4-4-4-4-9-9-9-9-9-9--0-0-0------------0-0-0------------|
D|--4-4-4-4-4-4-4-4-4-4-4-4-2-2-2-2-2-7-7-7-7-7-7------------------------------------|
PM                                                 . .              . .

Guitar II
1:09 - 1:27
e|------------------------------------------------------0-0-------0------0-0-------0--|
B|------------------------------------------------------0---0---0--------0---0---0----|
G|--------------------------------------------------2-2-2-----2------2-2-2-----2------|
D|--6-6-6-6-6-6-6-6-6-6-6-6-4-4-4-4-4-11-9-9-9-9-9--2-2-2------------2-2-2------------|
A|--6-6-6-6-6-6-6-6-6-6-6-6-4-4-4-4-4-11-9-9-9-9-9--0-0-0------------0-0-0------------|
D|--4-4-4-4-4-4-4-4-4-4-4-4-2-2-2-2-2-9--7-7-7-7-7------------------------------------|
PM                                                  . .              . .

BRIDGE B: X1

Guitars I & II
1:27 - 1:35
e|------------------------------------|
B|------------------------------------|
G|-------------------2222-222222-2-4--|
D|--2222-222222-22-0-2222-222222-2-4--|
A|--2222-222222-22-0-0000-000000-0-2--|
D|--2222-222222-22-0------------------|
PM  .... ...... .. . .... ...... . .

Guitars I & II
1:35 - 1:44
e|------------------------------------|
B|------------------------------------|
G|-------------------2222-222222-2-4--|
D|--2222-222222-22-0-2222-222222-2-4--|
A|--2222-222222-22-0-0000-000000-0-2--|
D|--2222-222222-22-0------------------|
PM

2-STEP: X2

Guitars I & II
1:44 - 2:00
e|----------------000000-000000--|
B|----------------000000-000000--|
G|----------------222222-222222--|
D|--222222-222222-222222-222222--|
A|--222222-222222-000000-000000--|
D|--222222-222222----------------|
PM

BRIDGE C: X1

Guitar I
2:00 - 2:03
e|--5-4-------|
B|------------|
G|------------|
D|------------|
A|------------|
D|------------|
PM

OUTRO: X1

Guitar I
2:03 - 2:11
e|-----------------------------------------------------0------0--|
B|-----------------------------------------------------0------0--|
G|-------------------------------------------------2-2-2--2-2-2--|
D|--6-6-6-6-6-6-6-6-6-6-6-6-4-4-4-4-4-9-9-9-9-9-9--2-2-2--2-2-2--|
A|--6-6-6-6-6-6-6-6-6-6-6-6-4-4-4-4-4-9-9-9-9-9-9--0-0-0--0-0-0--|
D|--4-4-4-4-4-4-4-4-4-4-4-4-2-2-2-2-2-7-7-7-7-7-7----------------|
PM                                                 . .    . .

Guitar II
2:03 - 2:11
e|------------------------------------------------------0------0--|
B|------------------------------------------------------0------0--|
G|--------------------------------------------------2-2-2--2-2-2--|
D|--6-6-6-6-6-6-6-6-6-6-6-6-4-4-4-4-4-11-9-9-9-9-9--2-2-2--2-2-2--|
A|--6-6-6-6-6-6-6-6-6-6-6-6-4-4-4-4-4-11-9-9-9-9-9--0-0-0--0-0-0--|
D|--4-4-4-4-4-4-4-4-4-4-4-4-2-2-2-2-2-9--7-7-7-7-7----------------|
PM                                                  . .    . .

Guitar I
2:11 - 2:24
e|-----------------------------------------------------0------0----------|
B|-----------------------------------------------------0------0----------|
G|-------------------------------------------------2-2-2--2-2-2----------|
D|--6-6-6-6-6-6-6-6-6-6-6-6-4-4-4-4-4-9-9-9-9-9-9--2-2-2--2-2-2--222222--|
A|--6-6-6-6-6-6-6-6-6-6-6-6-4-4-4-4-4-9-9-9-9-9-9--0-0-0--0-0-0--222222--|
D|--4-4-4-4-4-4-4-4-4-4-4-4-2-2-2-2-2-7-7-7-7-7-7----------------222222--|
PM                                                 . .    . .

Guitar II
2:11 - 2:24
e|------------------------------------------------------0------0----------|
B|------------------------------------------------------0------0----------|
G|--------------------------------------------------2-2-2--2-2-2----------|
D|--6-6-6-6-6-6-6-6-6-6-6-6-4-4-4-4-4-11-9-9-9-9-9--2-2-2--2-2-2--222222--|
A|--6-6-6-6-6-6-6-6-6-6-6-6-4-4-4-4-4-11-9-9-9-9-9--0-0-0--0-0-0--222222--|
D|--4-4-4-4-4-4-4-4-4-4-4-4-2-2-2-2-2-9--7-7-7-7-7----------------222222--|
PM                                                  . .    . .

Rate and Comment. Enjoy!

===============================================================================
Suggest correction
Give kudos to tab author, rate the tab!
1 2 3 4 5
comments
print report bad tab
guest
You may want to rate the tab now too:
select rating
Wanna post a correction for this tab? Suggest correction