Oops, an error
Loading. Please wait.

Mars Argo - Electric Car Live Acoustic Chords

599 views 1 this week
2 commentsread comments
1 2 3 4 5
please rate
add to favorites
launch autoscroll
font size
0
reset
transpose
0
reset
display chords
guitar tuner
Autoscroll
slow
fast
+/-
esc
set tempo
stop
Help us to improve Ultimate-Guitar.com Take our survey!
×
Author
I got the tab from watching Titanic play in the video
http://www.youtube.com/watch?v=mhSIiYHJAms

(intro piano)

G#
 I am your emergency

Break down the front door for me
F#
 Think about my perfect life

With the windows down I am driving
G#
 To a red suburban house

Round ocean floating on a memory
F#
 Of a time when life was green
                       B
Reality is just a dream

B
 I want to build your sunshine
C#
 And operate your breathing
G#
 Electric, electric
B
 The frequency in coming
C#
 You feel the pulse of my car
G#
 Electric, electric


G#
 I will come and rescue you

In perfect silence we're talking
F#
 Imagine I am the pilot

Blue skies will always remind me
G#
 Of a letter that you wrote

I fold into a paper plane
F#
 Unfold the love that is flying
                       B
Reality is just a dream



B
 I want to build your sunshine
C#
 And operate your breathing
G#
 Electric, electric
B
 The frequency in coming
C#
 You feel the pulse of my car
G#
 Electric, electric
B
 My battery is a child
C#
 My love in never ending
G#
 Electric, electric
B
 I am communication
C#
 I found my destination
G#
 Electric

Riff:
E|-----------------------------------------------------------------|
B|-----------------------------------------------------------------|
G|--13-12-13-12----13-12-13-12----13-12-13-12----13-12-13-12-------|
D|--------------13-------------13-------------13-------------13----|
A|-----------------------------------------------------------------|
E|-----------------------------------------------------------------|

E|-----------------------------------------------------------------|
B|-----------------------------------------------------------------|
G|--11-10-11-10----11-10-11-10----11-10-11-10----11-10-11-10-------|
D|--------------11-------------11-------------11-------------11----|
A|-----------------------------------------------------------------|
E|-----------------------------------------------------------------|


B
 I want to build your sunshine
C#
 And operate your breathing
G#
 Electric, electric
B
 The frequency in coming
C#
 You feel the pulse of my car
G#
 Electric, electric
B
 My battery is a child
C#
 My love in never ending
G#
 Electric, electric
B
 I am communication
C#
 I found my destination
G#
 Electric 
Suggest correction
Give kudos to tab author, rate the tab!
1 2 3 4 5
comments
print report bad tab
2 comments total.
0 reply
CumDragon69 82 wrote on March 10 2013, 08:03 pm

You could also play this song by fingerpicking the exact same chords but without the sharp sign at the end of the chord. For instance, G# is G with capo on first fret, B is A with capo on first fret, and so on.

The guitar riff could be played

E|-----------------------------------------------------------------|
B|-----------------------------------------------------------------|
G|--12-11-12-11----12-11-12-11----12-11-12-11----12-11-12-11-------|
D|--------------12-------------12-------------12-------------12----|
A|-----------------------------------------------------------------|
E|-----------------------------------------------------------------|

E|-----------------------------------------------------------------|
B|-----------------------------------------------------------------|
G|--10-9-10-9----10-9-10-9----10-9-10-9---10-9-10-9-10-------------|
D|-----------10-----------10---------------------------10----------|
A|-----------------------------------------------------------------|
E|-----------------------------------------------------------------|

(Relative to the capo, obviously.

0 reply
CumDragon69 82 wrote on March 10 2013, 08:07 pm

Also, that video is private. Can you give us a live video that everyone else can see?

guest
You may want to rate the tab now too:
select rating
Wanna post a correction for this tab? Suggest correction