Oops, an error
Loading. Please wait.

Marshal And The Baby - Cherry Bombshell Bass Tab

25 views 1 this week
no commentswrite comment
1 2 3 4 5
please rate
add to favorites
launch autoscroll
font size
0
reset
guitar tuner
Autoscroll
slow
fast
+/-
esc
set tempo
stop
Help us to improve Ultimate-Guitar.com Take our survey!
×
Author
F#¢K
Just play it and tell me how it sounds

G|-----------------|-----------------|-----------------|
D|----3-----3-3-3h5|----3-----3-3-3p0|----3-----3-3-3h5|
A|-----------------|-----------------|-----------------|
E|0h3x--0h3x-x-x---|0h3x--0h3x-x-x---|0h3x--0h3x-x-x---|

G|----3------------|-----------------|-----------------|
D|----------5-----3|-----------------|-----------------|
A|-----------------|----5p4----------|-5-55-55-5-5h67-7|
E|0h3x--0h3x--0h3x-|0h3x-------------|-----------------|

G|-----------------|
D|-3-3-3h5p3-------|
A|-----------------|
E|x-x-x------0-----|
Suggest correction
Give kudos to tab author, rate the tab!
1 2 3 4 5
comments
print report bad tab
guest
You may want to rate the tab now too:
select rating
Wanna post a correction for this tab? Suggest correction