Oops, an error
Loading. Please wait.

Marsiling Boys - Tangisan Rindu Chords

1,466 views 1 this week
no commentswrite comment
1 2 3 4 5
3 more votes to show rating
add to favorites
launch autoscroll
font size
0
reset
transpose
0
reset
display chords
guitar tuner
Autoscroll
slow
fast
+/-
esc
set tempo
stop
Help us to improve Ultimate-Guitar.com Take our survey!
×
Author
Difficulty
novice
Tangisan Rindu

INTRO !!

|--------------------|
|--------------------|
|-------0------------|   
|---------0-----0----|
|-----------0----0---|
|-0-2-3-3-----3----3-| ( X3 )
                                                             
|---------------------|
|---------------------|
|-------0-------------|
|---------0-----0-----|
|-----------0-----0---|
|-0-5-3-2-----2-----2-|

|--------------------|
|--------------------|
|-------0------------|   
|---------0-----0----|
|-----------0----0---|
|-0-2-3-3-----3----3-| ( X3 )
                                                             
|---------------------|
|---------------------|
|-------0-------------|
|---------0-----0-----|
|-----------0-----0---|
|-0-5-3-2-----2-----2-|


|-------------------------|
|-------------------------|
|-------------------------|
|-----0-----0-----0-----0-|
|---0-----0-----0-----0---|
|-2-----3-----5-----0-----|

|---------------------|
|---------------------|
|---------------------|
|-5-------------------|
|-5-------------------|
|-5-7-8-0-8-7-5-3-3/5-|
 
|-----------------|
|-2-3-5-7-5-3-0-2-|
|-----------------|
|-----------------|
|-----------------|
|-----------------|


PLUCKING PATTERN (:

|-----------------|
|-o---------------|
|---o-------------|
|-------o-----o---|
|-----o-----o---o-|
|---------o-------|


CHORDS :

 Am    Dm    G     C     F     Dm    E
|-0-| |-0-| |-3-| |-0-| |-1-| |-0-| |-0-|
|-0-| |-0-| |-2-| |-3-| |-3-| |-0-| |-2-|
|-2-| |-0-| |-0-| |-2-| |-3-| |-0-| |-2-|
|-2-| |-2-| |-0-| |-0-| |-2-| |-2-| |-1-|
|-1-| |-3-| |-0-| |-1-| |-1-| |-3-| |-0-|
|-0-| |-1-| |-3-| |-0-| |-1-| |-1-| |-0-|

Am
Cinta adalah 

         Dm
Suatu mimpi yang tak nyata

 G 
Dia hanya berpura

         C
Menjadi uban dukahan hati

 F
Dia berbunga 
      
            Dm
Dengan senyuman yang mekar

       E
Dan berhangit

                   Am
Dengan tangisan rindu

Am          Dm
Aku mencintaimu

G                 C
Mengapa harus begini

      F                 Dm
Kau tahu ku tak akan berpura

  E
Demi menahan cinta kita

     Am            Dm
Mengapa kasih mengapa

     G                 C
Mengapa harus kau mendua

      F                Dm
Kau tahu ku takkan terima

       E
Dengan sikapmu sebergitu

     Am              Dm
Mengapa ada yang kedua

     G            C
Di hatimu selain aku
  
      F               Dm
Kau tetap lukakan hatiku

    E 
Apa maksudmu semua itu


Solo : Am, Dm, G, C, F, Dm, E

     Am            Dm
Mengapa kasih mengapa

     G                 C
Mengapa harus kau mendua

      F                Dm
Kau tahu ku takkan terima

       E
Dengan sikapmu sebergitu

     Am              Dm
Mengapa ada yang kedua

     G            C
Di hatimu selain aku
  
      F               Dm
Kau tetap lukakan hatiku

    E 
Apa maksudmu semua itu


Am          Dm
Aku mencintaimu

G                 C
Mengapa harus begini

      F                 Dm
Kau tahu ku tak akan berpura

  E
Demi menahan cinta kita

    F             E
Dan aku ditenggelami

            Am
Tangisan rindu

    F             E
Dan aku ditenggelami

            Am
Tangisan rindu


Listen to song at
http://www.youtube.com/watch?v=FPnuPU2o4g0


Follow me on Twitter
http://twitter.com/CHASErKhaiZZ


Subscribe to my YouTube
http://www.youtube.com/user/chaseyas25
Suggest correction
Give kudos to tab author, rate the tab!
1 2 3 4 5
comments
print report bad tab
guest
You may want to rate the tab now too:
select rating
Wanna post a correction for this tab? Suggest correction