Oops, an error
Loading. Please wait.

Martin Beach - Lukes Little Band Bass Tab

32 views 1 this week
no commentswrite comment
1 2 3 4 5
please rate
add to favorites
launch autoscroll
font size
0
reset
guitar tuner
Autoscroll
slow
fast
+/-
esc
set tempo
stop
Help us to improve Ultimate-Guitar.com Take our survey!
×
Author
Verse:

G|---------------------------------------------------------------|
D|-----------------------3--------------5---------5--------------|
A|-7--x-x--5-x--3------3-----7--x-x--5----------5---5------------|
E|-------------------3------------------------5------------------|

G|---------------------------------------------------------------|
D|-----------------------3--------------5---------5-5------------|
A|-7--x-x--5-x--3------3-----7--x-x--5----------5--5-------------|
E|-------------------3------------------------5------------------|


Bridge:


G|---------------------------------------------------------------|
D|--7--7--7-7-7---5--5--5-5-5---9--9--9-9-9---10--10--10-10-10---|
A|---------------------------------------------------------------|
E|---------------------------------------------------------------|
Suggest correction
Give kudos to tab author, rate the tab!
1 2 3 4 5
comments
print report bad tab
guest
You may want to rate the tab now too:
select rating
Please do not post tabs as comments. Select "correction" instead!