Oops, an error
Loading. Please wait.

Martin Beach - The Beginning Bass Tab

17 views 1 this week
no commentswrite comment
1 2 3 4 5
3 more votes to show rating
add to favorites
launch autoscroll
font size
0
reset
guitar tuner
Autoscroll
slow
fast
+/-
esc
set tempo
stop
Help us to improve Ultimate-Guitar.com Take our survey!
×
Author
1st line

G|---------------------------------------------------------------|
D|--------------------10------------------------8----------------|
A|-----------------10---12-11-10--------------8---10-9-8---------|
E|--10--10-10---12----------------8--8-8---10--------------------|


G|----------------8----------------------------------------------|
D|--------------8----10-9-8----10--10----10h11(x4)---------------|
A|--8--8-8---10--------------------------------------------------|
E|---------------------------------------------------------------|



Then a slight variation that you play for the rest of the song 



G|---------------------------------------------------------------|
D|--------------------10------------------------8----------------|
A|-----------------10---12-11-10--------------8---10-9-8---------|
E|--10--10-10---12----------------8--8-8---10--------------------|


G|----------------8----------------------------------------------|
D|--------------8----10-9-8----10--10-8h10--8--------------------|
A|--8--8-8---10-------------------------------10-9-8-------------|
E|---------------------------------------------------10--8-------|

Suggest correction
Give kudos to tab author, rate the tab!
1 2 3 4 5
comments
print report bad tab
guest
You may want to rate the tab now too:
select rating
Wanna post a correction for this tab? Suggest correction