Oops, an error
Loading. Please wait.

Martin Lehman - Love Of God tab

19 views 1 this week
no commentswrite comment
1 2 3 4 5
3 more votes to show rating
add to favorites
×
Save as Personal and add changes to this tab that will be seen only by you. Learn more ›
×
You can save this tab as Personal to edit and correct it or add notes. All changes will be seen only by you. Learn more »
launch autoscroll
font size
0
reset
how to read this tab
guitar tuner
edit
Autoscroll
slow
fast
+/-
esc
set tempo
stop
Author
[Intro]
e|----------------------------------------------------------------------------------|
B|3-3-3-3-3-2-0-----------0---------------------------------------------------------|
G|--0-2-0-0-2---2---2--2-----2------------------------------------------------------|
D|4-------------2-4-0--0--0-----2---4-0---------------------------------------------|
A|----------------5----------4------5-0---------------------------------------------|
E|----------------------------------------------------------------------------------|

{verse}
e|--------------------------------------------------------------------------------|
B|-------------------0------------------------------------------------------------|
G|-----------------2-----2----2----2----2-------------0---------------------------|
D|-0----0--2---4---4----------4-4--0-----------4--2---2--4-2---4---0---0----2--4--|
A|---------0---5----------------5-------0------5--4------5-4---5------------0--5--|
E|-------------------3-3----------------------------------------------------------|
  the love of God is greater far  than tongue or pen can ever tell it goes beyond 
e|--------------------------------------------------------------------------------|
B|----0--------------------------------------------3---3--3---0----3-----3-----3--|
G|-2------2---2-----2---2----------0-------------------0--2---0----0-----0-----0--|
D|-4----------4-4---0------4---2---2---4--2---0----4------------------------------|
A|--------------5-------0--5---4-------5--4---0-----------------------------------|
E|----3-3-------------------------------------------------------------------------|
  the highest star and reaches to the lowest hell the guilty pair bowed down with 
e|----------------------------------------------------------------------------------|
B|---------------0--------------3---3-3----0----3----3--3---------------0-----------|
G|-2----2----2-------2--0-----------0-2----0----0----0--0--2----2---2--------2------|
D|-4-4--0----0---0----2-2---4---4--------------------------4-4--0---0---0-----2---4-|
A|---5---------------4------5--------------------------------5---------------4----5-|
E|----------------------------------------------------------------------------------|
  care God gave his son to win his erring child He reconciled  and pardoned from his
e|--------------------------------------------------------------------------------|
B|--------------------------------------------------------------------------------|
G|--------------------------------------------------------------------------------|
D|-0------------------------------------------------------------------------------|
A|-0------------------------------------------------------------------------------|
E|--------------------------------------------------------------------------------|
  sin
e|-------------------------------------------------------------------------------------|
B|------3-3----3---3---3---2----0---------------0--------0----------3--3-----3--3--3-2-|
G|--------0----2---0---0---2----0---2----2---2----2----------2---------0-----2--0--0-2-|
D|------4---------------------------4-4--0---0--0---2--------0------4------------------|
A|------------------------------------5-----------4------3-----------------------------|
E|-------------------------------------------------------------------------------------|


O love of God how rich and pure how measureless and strong it shall forevermore
e|--------------------------------------------------------------------------------|
B|--0-----------------0-----------------------------------------------------------|
G|--0-2----2---2---------2--------------------------------------------------------|
D|----4-4--0---0------0---2--4---0------------------------------------------------|
A|------5----------------4---5---0------------------------------------------------|
E|--------------------------------------------------------------------------------|
   endure the saints and angels song

            
            
Suggest correction
Creating personal tab
Creating personal tab
You can edit any tab online and save it as your Personal.

You can edit, replace or remove any tab part or add personal notes – all changes will be seen only by you.

Personal tabs can be accessed anytime from any device, even offline.
Learn more »
Give kudos to tab author, rate the tab!
1 2 3 4 5
comments
print report bad tab
guest
You may want to rate the tab now too:
select rating
Wanna post a correction for this tab? Suggest correction