Oops, an error
Loading. Please wait.

Marvellettes - When Youre Young And In Love Bass Tab

120 views 1 this week
no commentswrite comment
1 2 3 4 5
please rate
add to favorites
launch autoscroll
font size
0
reset
guitar tuner
Autoscroll
slow
fast
+/-
esc
set tempo
stop
Help us to improve Ultimate-Guitar.com Take our survey!
×
Author
Difficulty
bass50611 7,166
intermediate
When Youre Young and In Love
Original Artists: The Marvellettes
Original Bassist: James Jamerson
Not as easy as some of the Motown Songs never the less
a great number to do.
Tabbed by bass50611
Let me know your comments at bass254@btinternet.com
My tab was wholly up graded 20th Jan 2015 and boy did it need it!

Intro, Verse 1 & Chorus 1:
G|-------|---------------------------------------------------------
D|-PIANO-|------------------------77-7-5-3-33--3-3--3-3--5-5--3-33-
A|-START-|-3-33-333-33-333-33-330---------------3------------------
E|-------|---------------------------------------------------------

G|--------------------------------------------------------------
D|-3-3--3-33-3--5-55-555-5-55-55--------------------------------
A|--3----------------------------6-66-6--3-33-1-0---------------
E|------------------------------------------------4-44-44-4-6-6-
5
G|-------------------------------3-5-5-3---------------3-5-5-3----------
D|------------------------------5-------6-6-8--8-6-5--5--------6-6--5-5-
A|----------------------------------------------------------------------
E|-4-44-44-44-4-6-66-66-66-6-4-3----------------------------------------

Verse 2 & Chorus 2:
G|-------------------------------------------------------------------------
D|------------7-5-3-33--3-3--3-3--5-5--3-33--3-3--3-33-3--5-55-555-5-55-55-
A|-3-33-3-0--0-----------3--------------------3----------------------------
E|-------------------------------------------------------------------------

G|---------------------------------------------------------------
D|---------------------------------------------------------------
A|-6-66-6--3-33-1-0----------------------------------------------
E|-----------------4-44-44-4-6-6--4-44-44-44-4--6-66-66-66-6-4-3-

G|--3-5-5-3---------------3-5-5-3----------------3-5-5-3---------
D|-5-------6-6-8--8-6-5--5--------6-6-8--8-6-5--5-------6-6--8-8-
A|---------------------------------------------------------------
E|---------------------------------------------------------------

Chorus 3:
G|-------------------------------------------------------------
D|-------------------------------------------------------------
A|-6-66-6--3-33-1----------------------------------------------
E|---------------4-44-44-4-6-6--4-44-44-44-4--6-66-66-66-6-4-3-

G|--3-5-5-3---------------3-5-5-3----------------3-5-5-3---------
D|-5-------6-6-8--8-6-5--5--------6-6-8--8-6-5--5-------6-6--8-8-
A|---------------------------------------------------------------
E|---------------------------------------------------------------

Outro (Repeat to Fade):
G|-----------------------------
D|-----------------------------
A|-6-66-6--------6-66-6--------
E|--------6-66-6--------6-66-6-
Suggest correction new What's this?
You can suggest a correction to this tab. Community and Mods will review your correction and vote to approve or reject it.
comments
We did not receive enough feedback on this tab! Please rate:
print report bad tab
1 2 3 4 5
guest
You may want to rate the tab now too:
select rating
Please do not post tabs as comments. Select "correction" instead!