Oops, an error
Loading. Please wait.

Mary Jo Feat Tommi Inkila - Bang Bang Mystery Man Bass Tab

3,079 views 6 this week
no commentswrite comment
1 2 3 4 5
please rate
add to favorites
launch autoscroll
font size
0
reset
guitar tuner
Autoscroll
slow
fast
+/-
esc
set tempo
stop
Help us to improve Ultimate-Guitar.com Take our survey!
×
Contributor
-------------------------------------------------------------------------------
		Bang Bang, Mystery Man - Mary Jo feat. Tommi Inkila
-------------------------------------------------------------------------------

Tabbed By : bReathl3sS
e-mail: bk_breathl3ss@onlinehome.de

Tuning: Standard

Song from Frets on Fire.

Bass:
There are some parts, where the pauses could be a little wrong. I focussed on the rythm.
Listen closely to the song, then you know how to play it correct with the pauses.

Important: The BASS is not tabbed by me!! I got it from someone else and added the rythm 
pauses!
So i am not taking credits

Beats Per Minute: 118


Bass


Bass Riff 1 (0:00)
     Q.     H        E     Q.     H        E     Q.     H        E
G||---------------------|--3------0--------L--|---------------------|
D||--0------3--------L--|---------------------|--0------3--------L--|
A||---------------------|---------------------|---------------------|
E||---------------------|---------------------|---------------------|


  Q.     H        E     Q.     H        E     Q.     H        E
--3------2--------L--|---------------------|--3------0--------L--|
---------------------|--0------3--------L--|---------------------|
---------------------|---------------------|---------------------|
---------------------|---------------------|---------------------|


  Q.     H        E     Q.     H        E     Q.     H        E
---------------------|--3------2--------L--|---------------------|
--0------3--------L--|---------------------|--0------3--------L--|
---------------------|---------------------|---------------------|
---------------------|---------------------|---------------------|


  Q.     H        E     Q.     H        E     Q.     H        E
--3------0--------L--|---------------------|--3------2--------L--|
---------------------|--0------3--------L--|---------------------|
---------------------|---------------------|---------------------|
---------------------|---------------------|---------------------|

Bass Riff 2 (0:24)
  E  E  H.              E  E  H.              E  E  H.
---------------------|---------------------|---------------------|
---------------------|---------------------|--0--0--L------------|
--1--1---------------|--4--4--L------------|---------------------|
---------------------|---------------------|---------------------|


  E  E  H.              E  E  H.              E  E  H.
---------------------|---------------------|---------------------|
--2--2--L------------|--3--3--L------------|--7--7--L------------|
---------------------|---------------------|---------------------|
---------------------|---------------------|---------------------|


  E  E  E  E  Q    Q       H        H           W
------------------------|--------------------|-------------------|
--5--5--L--3--L----2----|--------------------|-------------------|
------------------------|-----------1--------|--0----------------|
------------------------|--------------------|-------------------|

                    Chorus (0:45)
  W                   Q.     H        E     Q.     H        E
-------------------|---------------------|---------------------|
-------------------|--0------3--------L--|--3------1--------L--|
--0----------------|---------------------|---------------------|
-------------------|---------------------|---------------------|


  Q.     H        E     Q.     H        E     Q.     H        E
---------------------|---------------------|---------------------|
--0------3--------L--|--3------1--------L--|--0------3--------L--|
---------------------|---------------------|---------------------|
---------------------|---------------------|---------------------|


  Q.     H        E     Q.     H        E     Q.     H        E
---------------------|---------------------|---------------------|
--3------1--------L--|--0------3--------L--|--3------1--------L--|
---------------------|---------------------|---------------------|
---------------------|---------------------|---------------------|

Bass Riff 1 (1:00)
  Q.     H        E     Q.     H        E     Q.     H        E
---------------------|--3------0--------L--|---------------------|
--0------3--------L--|---------------------|--0------3--------L--|
---------------------|---------------------|---------------------|
---------------------|---------------------|---------------------|


  Q.     H        E     Q.     H        E     Q.     H        E
--3------2--------L--|---------------------|--3------0--------L--|
---------------------|--0------3--------L--|---------------------|
---------------------|---------------------|---------------------|
---------------------|---------------------|---------------------|


  Q.     H        E     Q.     H        E     Q.     H        E
---------------------|--3------2--------L--|---------------------|
--0------3--------L--|---------------------|--0------3--------L--|
---------------------|---------------------|---------------------|
---------------------|---------------------|---------------------|


  Q.     H        E     Q.     H        E     Q.     H        E
--3------0--------L--|---------------------|--3------2--------L--|
---------------------|--0------3--------L--|---------------------|
---------------------|---------------------|---------------------|
---------------------|---------------------|---------------------|

Bass Riff 2 (1:25)
  E  E  H.              E  E  H.              E  E  H.
---------------------|---------------------|---------------------|
---------------------|---------------------|--0--0--L------------|
--1--1---------------|--4--4--L------------|---------------------|
---------------------|---------------------|---------------------|


  E  E  H.              E  E  H.              E  E  H.
---------------------|---------------------|---------------------|
--2--2--L------------|--3--3--L------------|--7--7--L------------|
---------------------|---------------------|---------------------|
---------------------|---------------------|---------------------|


  E  E  E  E  Q    Q       H        H           W
------------------------|--------------------|-------------------|
--5--5--L--3--L----2----|--------------------|-------------------|
------------------------|-----------1--------|--0----------------|
------------------------|--------------------|-------------------|

                    Chorus (1:45) with delayed Bass
  W                   H        E  Q.        Q.     H        E
-------------------|---------------------|---------------------|
-------------------|--------------3------|--3------1--------L--|
--0----------------|---------------------|---------------------|
-------------------|---------------------|---------------------|


  Q.     H        E     Q.     H        E     Q.     H        E
---------------------|---------------------|---------------------|
--0------3--------L--|--3------1--------L--|--0------3--------L--|
---------------------|---------------------|---------------------|
---------------------|---------------------|---------------------|


  Q.     H        E     Q.     H        E     Q.     E  H
---------------------|---------------------|---------------------|
--3------1--------L--|--0------3--------L--|--3------1-----------|
---------------------|---------------------|---------------------|
---------------------|---------------------|---------------------|

Guitar Solo (2:02) with Chorus Bass
  Q.     H        E     Q.     H        E     Q.     H        E
---------------------|---------------------|---------------------|
--0------3--------L--|--3------1--------L--|--0------3--------L--|
---------------------|---------------------|---------------------|
---------------------|---------------------|---------------------|


  Q.     H        E     Q.     H        E     Q.     H        E
---------------------|---------------------|---------------------|
--3------1--------L--|--0------3--------L--|--3------1--------L--|
---------------------|---------------------|---------------------|
---------------------|---------------------|---------------------|

                                            Bass Riff 2 (2:19) with Single instead of 
Bass Notes
  Q.     H        E     Q.     E  H           W
---------------------|---------------------|-------------------|
--0------3--------L--|--3------1-----------|-------------------|
---------------------|---------------------|--1----------------|
---------------------|---------------------|-------------------|


  W                   W                   W                   W
-------------------|-------------------|-------------------|-------------------|
-------------------|--0----------------|--2----------------|--3----------------|
--4----------------|-------------------|-------------------|-------------------|
-------------------|-------------------|-------------------|-------------------|


  W                   E  E  E  E  Q    Q       H        H
-------------------|------------------------|--------------------|
--7----------------|--5--L--L--3--L----2----|--------------------|
-------------------|------------------------|-----------1--------|
-------------------|------------------------|--------------------|

                                        Chorus (2:39)
  W                   W                   Q.     H        E
-------------------|-------------------|---------------------|
-------------------|-------------------|--0------3--------L--|
--0----------------|--0----------------|---------------------|
-------------------|-------------------|---------------------|


  Q.     H        E     Q.     H        E     Q.     H        E
---------------------|---------------------|---------------------|
--3------1--------L--|--0------3--------L--|--3------1--------L--|
---------------------|---------------------|---------------------|
---------------------|---------------------|---------------------|


  Q.     H        E     Q.     H        E     Q.     H        E
---------------------|---------------------|---------------------|
--0------3--------L--|--3------1--------L--|--0------3--------L--|
---------------------|---------------------|---------------------|
---------------------|---------------------|---------------------|

                      Outro (2:55) with Guitar Solo and Bass Chorus
  Q.     E  H           Q.     H        E     Q.     H        E
---------------------|---------------------|---------------------|
--3------1-----------|--0------3--------L--|--3------1--------L--|
---------------------|---------------------|---------------------|
---------------------|---------------------|---------------------|


  Q.     H        E     Q.     H        E     Q.     H        E
---------------------|---------------------|---------------------|
--0------3--------L--|--3------1--------L--|--0------3--------L--|
---------------------|---------------------|---------------------|
---------------------|---------------------|---------------------|


  Q.     H        E     Q.     H        E     Q.     E  H
---------------------|---------------------|---------------------||
--3------1--------L--|--0------3--------L--|--3------1-----------||
---------------------|---------------------|---------------------||
---------------------|---------------------|---------------------||


Duration Legend
---------------
W - whole
H - half
Q - quarter
E - 8th
S - 16th
T - 32nd
X - 64th
. - note dotted
|-n-|  - n-tuplets


Tablature Legend
----------------
L - tied note
x - dead note
g - grace note
(n) - ghost note
> - accentuded note
NH - natural harmonic
AH - artificial harmonic
TH - tapped harmonic
SH - semi harmonic
PH - pitch harmonic
h - hammer on
p - pull off
b - bend
br - bendRelease
pb - preBend
pbr - preBendRelease
brb - bendReleaseBend
\n/ - tremolo bar dip
\n - tremolo bar dive
-/n - tremolo bar Release up
/n\ - tremolo bar inverted dip
/n - tremolo bar return
-\n - tremolo bar Release down
S - shift slide
s - legato slide
/ -  slide into from below or out of upwards
\ -  slide into from above or out of downwards
~ - vibrato
W - wide vibrato
tr - trill
TP - tremolo picking
T - tapping
S - slap
P - pop
< - fade in
^ - brush up
v - brush down
comments
We did not receive enough feedback on this tab! Please rate:
print report bad tab
1 2 3 4 5
I want to post or [tab]
guest
You may want to rate the tab now too:
select rating
Please do not post tabs as comments. Select "correction" instead!