Oops, an error
Loading. Please wait.

Max Weltman - Unfortunate tab

38 views 1 this week
1 commentread comment
1 2 3 4 5
3 more votes to show rating
add to favorites
×
Save as Personal and add changes to this tab that will be seen only by you. Learn more ›
×
You can save this tab as Personal to edit and correct it or add notes. All changes will be seen only by you. Learn more »
launch autoscroll
font size
0
reset
how to read this tab
guitar tuner
edit
Autoscroll
slow
fast
+/-
esc
set tempo
stop
Author
Difficulty
-------------------------------------------------------------------------------
                             Unfortunate – Max Weltman
-------------------------------------------------------------------------------
Tabbed by: mjosephw52
Email: mjosephw52@gmail.com

Tuning: Standard

I am doing this for a friend, because I doubt anybody is actually going to be searching 
for this song. But if you do, search it on YouTube as DesecrationSmile52. This may not 
be perfect, but the chords are right and it should be easy to figure out with the right chords.
e|---------------------------------------------------------------------------|
B|----------all-octaves------------------------------------------------------|
G|---------------------------------------------------------------------------|
D|--4-4-4-4-7-7-7-7-11-11-11-11-9-9-9-11-9-7---------------------------------|
A|--x-x-x-x-x-x-x-x--x--x--x--x-x-x-x--x-x-x—repeat-for-verse-6x-------------|
E|--2-2-2-2-5-5-5-5--9--9--9--9-7-7-7--9-7-5---------------------------------|

e|---------------------------------------------------------------------------|
B|---------------------------------------------------------------------------|
G|-----all-octaves;-pick-scrape-as-necessary---------------------------------|
D|--4-4-4-7-7-7-7-7-7-7-7-4-4-4-11-11-11-11-9-9-9-9--------------------------|
A|--x-x-x-x-x-x-x-x-x-x-x-x-x-x--x--x--x--x-x-x-x-x—repeat-for-verse-2x------|
E|--2-2-2-5-5-5-5-5-5-5-5-2-2-2--9--9--9--9-7-7-7-7--------------------------|

e|--distortion-palm-muting---------------------------------------------------|
B|---------------------------------------------------------------------------|
G|---------------------------------------------------------------------------|
D|-------------------------------------------------------repeat-3x-for-verse-|
A|-2-2-2-2-2-2-2-2-5-5-5-5-4-4-4-4-2-2-2-2-2-2-2-2-5-5-5-5-7-7-7-7-----------|
E|-0-0-0-0-0-0-0-0-3-3-3-3-2-2-2-2-0-0-0-0-0-0-0-0-3-3-3-3-5-5-5-5-----------|

e|--distortion-no-palm-muting------------------------------------------------|
B|---------------------------------------------------------------------------|
G|------------------------------------------------repeat-for-verse-2x--------|
D|-------------------------------------------------------5-7-----------------|
A|-2-2-2-2-2-2-2-2-7-7-7-7-7-7-7-7-7-2-2-2-2-2-2-2-2-7-5-3-5-----------------|
E|-0-0-0-0-0-0-0-0-5-5-5-5-5-5-5-5-5-0-0-0-0-0-0-0-0-5-3---------------------|

The next verse (before the solo) is the same as the intro, just with distortion.

e|--solo-rhythm-guitar---------------------------------------------------------|
B|-----------------------------------------------------------------------------|
G|-----------------------------------------------------------------------------|
D|-----------------------------------------------------------------------------|
A|-4-4-4-7-4-7-7-7-11-11-11-11-9-9-9-9-----------------------------------------|
E|-2-2-2-2-5-5-5-5--9--9--9--9-7-7-7-7-----------------------------------------|
Basically same as intro and 5th verse but power chords and distortion; a little different though ^^

Last verse is just the same as the intro, but last four chords are slowed down for the ending.

If you still need help, contact me. This should be very accurate, but it also might be a 
little off in some places.

            
            
Suggest correction
Creating personal tab
Creating personal tab
You can edit any tab online and save it as your Personal.

You can edit, replace or remove any tab part or add personal notes – all changes will be seen only by you.

Personal tabs can be accessed anytime from any device, even offline.
Learn more »
Give kudos to tab author, rate the tab!
1 2 3 4 5
comments
print report bad tab
1 comment total.
0 reply
mjosephw52 31 Dec 18, 2010 08:18 AM

Listening to the song, I realized that some of the chords that I put to be played 4 times, like the first chords and such, should be played six times, not four. Listening to the song and playing along with this tab will help you figure out what I'm talking about. http://www.youtube.com/watch?v=iWpsEpp4eaM That is a link to the song. You will hear if you play the chords 4 times it will sound wrong, so just listen to the song and find the ones to play six times instead of four.

guest
You may want to rate the tab now too:
select rating
Wanna post a correction for this tab? Suggest correction