Oops, an error
Loading. Please wait.

Mfr - Tero Bau Mero Bau Tab

165 views 1 this week
no commentswrite comment
1 2 3 4 5
please rate
add to favorites
launch autoscroll
font size
0
reset
how to read this tab
guitar tuner
Autoscroll
slow
fast
+/-
esc
set tempo
stop
Help us to improve Ultimate-Guitar.com Take our survey!
×
Author
Difficulty
intermediate
Song : TERO BAU MERO BAU
Band : MFR

Tabbed by : animetal


INTRO

Part A

Bass guitar
G)------------------------------------------------|
D)------------------------------------------------|
A)-5-555555---------------------------------------|        X(2)
E)----------7-778888-2-2222222222222--------------|

Part B
(This is where the guitar enters)

Bass guitar
G)-----------------------------------------------|
D)-----------------------------------------------|
A)--5~-------------------------------------------|         X(2)
E)--------------7~-----------3~----------5~------|

Distortion guitar
e)---------------------------------------------------------|
B)-----5-7-------------------------------------------------|
G)--7--x-x-7--------7-6-4--------4-6-7------6-7-9----------|         X(2)
D)--7--2-4-x----9---x-x-x----5---x-x-x---7--x-x-x----------|
A)--5------5----9---5-4-2----5---2-4-5---7--4-5-7----------|
E)--------------7------------3-----------5-----------------|

Part C

Bass guitar
G)------------------------------------------------|
D)------------------------------------------------|
A)-5-555555---------------------------------------|        X(4)
E)----------7-778888-2-2222222222222--------------|

Distortion guitar
  PM...........................................PM
e)------------------------------------------------|
B)------------------------------------------------|
G)--7-777777--------------------------------------|         X(4)
D)--7-777777-9-9910101010-4-44444444444444--------|
A)--5-555555-9-99 8 8 8 8-2-22222222222222--------|
E)-----------7-77 8 8 8 8-2-22222222222222--------|


Part D

Bass guitar
G)------------------------------------------------|
D)------------------------------------------------|
A)------------------------------------------------|        X(2)
E)--3x(16)---------------5x(16)-------------------|

Distortion guitar
  PM............................................PM
e)------------------------------------------------|
B)------------------------------------------------|
G)------------------------------------------------|        X(2)
D)--5555555555555555-7777777777777777-------------|
A)--5555555555555555-7777777777777777-------------|
E)--3333333333333333-5555555555555555-------------|


Part E

Bass guitar (play this twice)
G)-------------------------------------------------|
D)-------------------------------------------------|
A)--5-55x(4)---------------------------------------|
E)--------------------------7-77x(4)---------------|

G)-------------------------------------------------|
D)-------------------------------------------------|
A)-------------------------------------------------|         X(2)
E)--3-33x(4)-------------------5-55x(4)------------|

Distortion guitar (play this twice) X(2)
e)-------------------------------------------------------------|
B)-------------------------------------------------------------|
G)--7-77-7-77-7-77-7/9-11-------------7\6/7\6/7\6/7\6----------|
D)--x-xx-x-xx-x-xx-x/x- x--9-99-9-99--x\x/x\x/x\x/x\x  X(2) <--|(just the sliding part only)
A)--5-55-5-55-5-55-5/7- 9--x-xx-x-xx--5\4/5\4/5\4/5\4----------|
E)-------------------------7-77-7-77---------------------------|


e)------------------------------------------------|
B)------------------------------------------------|
G)-------------7-6--4/6-9-------------7-6-6/9-6---|
D)--5-55-5-55--x-x--x/x-x--7-77-7-77--x-x-x/x-x---|
A)--x-xx-x-xx--5-4--2/4-7--x-xx-x-77--5-4-4/7-4---|
E)--3-33-3-33--------------5-55-5-55--------------|


Part F


Bass guitar (play this once)
G)-------------------------------------------------|
D)-------------------------------------------------|
A)--5-55X(4)---------------------------------------|
E)--------------------------7-77X(4)---------------| (the "X"represents number of times Not "mute")

G)-------------------------------------------------|
D)-------------------------------------------------|
A)-------------------------------------------------|
E)--3-33X(4)-------------------5-55X(4)------------|


Distortion guitar
e)------------------------------------------------|
B)------------------------------------------------|
G)--7/9-11-7/9-11-7/9-11--7/9-7/9-----------------|
D)--x/x- x-x/x- x-x/x- x--x/x-x/x-----------------|
A)--5/7- 9-5/7- 9-5/7- 9--5/7-5/7-----------------|
E)------------------------------------------------|


e)------------------------------------------------|
B)------------------------------------------------|
G)--6/7-9-6/7-9-6/7-9--6/7-6/7--------------------|
D)--x/x-x-x/x-x-x/x-x--x/x-x/x--------------------|
A)--4/5-7-4/5-7-4/5-7--4/5-4/5--------------------|
E)------------------------------------------------|

e)---------------------------------------------------|
B)---------------------------------------------------|
G)----6---9-9----------------------------------------|
D)--5-x-7-x---12--14-12--full^~V14~-or-(14)-------<--|(ending bit can be optional i mean)
A)--x-4-x-7------------------------------------------|
E)--3---5--------------------------------------------|


Heres how it is played:-

PART A
PART B
PART C
PART D
PART E
PART F
PART C
PART D
PART B

HOPE U CAN PLAY IT EASYLY SOON!!!
I TABBED IT ON ONE DAY TOOK LIKE 3 hours lol
well gud luck

THIS TAB IS NOT 100% correct but maybe gets a distinction i think :)
Suggest correction
Give kudos to tab author, rate the tab!
1 2 3 4 5
comments
print report bad tab
guest
You may want to rate the tab now too:
select rating
Please do not post tabs as comments. Select "correction" instead!