Oops, an error
Loading. Please wait.

Miasmic Corrosion - Raped Ravaged Rotting Tab

56 views 1 this week
no commentswrite comment
1 2 3 4 5
please rate
add to favorites
launch autoscroll
font size
0
reset
how to read this tab
guitar tuner
Autoscroll
slow
fast
+/-
esc
set tempo
stop
Help us to improve Ultimate-Guitar.com Take our survey!
×
Contributor
Difficulty
intermediate
----------------------------------------------------------------------------
                 Raped, Ravaged & Rotting - Miasmic Corrosion
                           GUITARIST - Edward Zammit 
----------------------------------------------------------------------------


************************************
Tuning: stamdard E (E-A-D-G-B-e)
************************************
This is the part that Edward plays not both
************************************
miasmic corrosion: http://www.myspace.com/miasmiccorrosion
************************************
| /   slide up
| \   slide down
| h   hammer-on
| p   pull-off
| ~   vibrato
| +   harmonic
| x   Mute note
| b   Bend
| pb  Pre-bend
| br  Bend release
| pbr Pre-bend release
| brb Bend release bend
| *   palm muted note
| ()  left hand tapping
| ^   whammy bar bends
| DB  dive bomb
************************************
INTRO

e|--11h12p11------------------| repeat as many times necessary
B|-----------10h11p10---------|
G|----------------------------|
D|----------------------------|
A|----------------------------|
E|----------------------------|

RIFF 1

e|----------------------------| repeat as many times necessary
B|----------------------------|
G|----------------------------|
D|----------------------------|
A|-------0-------5-4----------|
E|-0-0-0-0-0-0-0-3-2-0-0-0----|
 PM*****   *****     *****

RIFF 2

e|----------------------------------| repeat as many times necessary
B|----------------------------------|
G|----------------------------------|
D|----------------------------------|
A|-2-2-2-2-2-2-2-2-2-2-2-2-2--4-3---|
E|-0-0-0-0-0-0-0-0-0-0-0-0-0--2-1---|
 PM*   *   *   *   *   *   *

CHORUS (use flanger)

e|-------------------------------------------------| 
B|-------------------------------------------------| 
G|-------------------------------------------------| 
D|-10-10-10-10-10-10-10-10-10-10-10-10-10-10-10-10-|
A|-9--9--9--9--9--9--9--9--9--9--9--9--9--9--9--9--|
E|-------------------------------------------------|
 PM***********************************************

e|---------------------------------| repeat as many times necessary
B|---------------------------------|
G|---------------------------------|
D|-9-9-9-9-9-9-9-9-9-9-9-9-9-9-9-9-|
A|-8-8-8-8-8-8-8-8-8-8-8-8-8-8-8-8-|
E|---------------------------------|
 PM*******************************

repeat RIFF 2

repeat CHORUS

repeat RIFF 2 and keep going through solo

e|-----12-12-11-10-12-11-10-12-11-10-12-11-10-12-11-10-12-11-10--12b-10b-9b|
B|---11--------------------------------------------------------------------|
G|-10----------------------------------------------------------------------|
D|-------------------------------------------------------------------------|
A|-------------------------------------------------------------------------|
E|-------------------------------------------------------------------------|

e|-11b-8b-9b-11b-12-11-10-12-11-10-12-11-10-12-11-10-|
B|---------------------------------------------------|
G|---------------------------------------------------|
D|---------------------------------------------------|
A|---------------------------------------------------|
E|---------------------------------------------------|

e|-(18)p15p12-(18)p15p12-(18)p15p12-(20)p15p12-(20)p17p14-(21)p18p15\11-|
B|----------------------------------------------------------------------|
G|----------------------------------------------------------------------|
D|----------------------------------------------------------------------|
A|----------------------------------------------------------------------|
E|----------------------------------------------------------------------|

repeat CHORUS

repeat RIFF 2

RIFF 3

e|--------------------------| repeat as many times necessary
B|--------------------------|
G|--------------------------|
D|--------------------------|
A|--------------------------|
E|-3-0-0-0-1-0-0-0-1h2-1h2--|
 PM  *****   *****

repeat CHORUS

repeat RIFF 2

OUTRO

e|-11h12p11-------------------| repeat as many times necessary
B|---------11h12p11-----------|
G|-----------------11h12p11---|
D|----------------------------|
A|----------------------------|
E|----------------------------|

e|------------------------------|
B|------------------------------|
G|------------------------------|
D|-7~~~~~~~~~~~~ 7^8^7^8^7DB----|
A|------------------------------|
E|------------------------------|



                         ********END********
comments
We did not receive enough feedback on this tab! Please rate:
print report bad tab
1 2 3 4 5
I want to post or [tab]
guest
You may want to rate the tab now too:
select rating
Please do not post tabs as comments. Select "correction" instead!