Oops, an error
Loading. Please wait.

Michael Collings - Fast Car Tab

17,422 views 51 this week
1 commentread comment
1 2 3 4 5
x 10
add to favorites
×
Save as Personal and add changes to this tab that will be seen only by you. Learn more ›
launch autoscroll
font size
0
reset
how to read this tab
guitar tuner
Autoscroll
slow
fast
+/-
esc
set tempo
stop
Author
Difficulty
Capo
intermediate
4th fret
Capo 4
Standard Tuning

(Use your fingers to pluck the strings)

[Intro]            
e|-----------|---------------|
B|0h1h0-3-3--|-8-10-8---7-8-7|
G|0-----0--0-|---------------|
D|-----------|---------------|
A|3-----2----|-7--7-7---5-5-5|
E|-----------|---------------|

[Verse]
e|-----------|-------------|
B|0h1h0-3-3--|-8--7--7-----|
G|0-----0--0-|-0--0----0---|
D|-----------|-------------| (x4)
A|3-----2----|-7--5--------|
E|-----------|-------------|

[Interlude]
e|-----------|---------------|-------------|---------------|
B|0h1h0-3-3--|-8--7--7-------|--0h1h0-3-3--|-8-10-8---7-8-7|
G|0-----0--0-|-0--0----0-----|--0-----0--0-|---------------|
D|-----------|---------------|-------------|---------------|
A|3-----2----|-7--5----------|--3-----2----|-7--7-7---5-5-5|
E|-----------|---------------|-------------|---------------|

[Verse]
e|-----------|-------------|
B|0h1h0-3-3--|-8--7--7-----|
G|0-----0--0-|-0--0----0---|
D|-----------|-------------| (x4)
A|3-----2----|-7--5--------|
E|-----------|-------------|

[Chorus] 
(The Rhythem is hard to Tab, just listen to it for yourself)
e|---0-----3-----0-----2--|-----0-----0-----2-|---0----0-----2--------|
B|---1-----3-----0-----3--|-----1-----0-----3-|---1----0-----3--------|
G|---0-----0-----0-----2--|-----0-----0-----2-|---0----0-----2--------|
D|---2-----0-----2-----0--|-----2-----2-----0-|---2----2-----0--------|
A|---3-----2-----2--------|-----3-----2-------|---3----2--------------|
E|---0-----3-----0--------|-----0-----0-------|---3----0--------------|

[Outro]
e|-------2--------|
B|---1---3--------|
G|---0------------|
D|----------------|
A|---3---0--------|
E|----------------|


************************************

| h  Hammer-on

************************************
Suggest correction
comments
print report bad tab
1 comment total.
0 reply
jean.yeah 10 Mar 15, 2015 05:21 PM

thank you! this is an amazing song

guest
You may want to rate the tab now too:
select rating
Wanna post a correction for this tab? Suggest correction