Oops, an error
Loading. Please wait.

Michael Silverman - Bellas Lullaby Tab

644 views 1 this week
no commentswrite comment
1 2 3 4 5
3 more votes to show rating
add to favorites
launch autoscroll
font size
0
reset
how to read this tab
guitar tuner
Autoscroll
slow
fast
+/-
esc
set tempo
stop
Help us to improve Ultimate-Guitar.com Take our survey!
×
Author
Difficulty
novice
e|-0--2--3-2-3-2-3-2-3-5-0---------------------------------------------------|
b|--------------------------3-3--------------------------3-------------------|
g|----------------------------------2--4--5-4-5-4-5-4-5-----2----------------|
D|-------------------------------------------------------------5--4----------|
A|---------------------------------------------------------------------------|
E|---------------------------------------------------------------------------|

e|-0--2--3-2-3-2-5-5/7-5-3-2-0-----------------------------------------------|
b|------------------------------3-3-------------------3-3/5-3----------------|
g|--------------------------------------2--4--5-4-5-4---------5-4-2----------|
D|---------------------------------------------------------------------------|
A|---------------------------------------------------------------------------|
E|---------------------------------------------------------------------------|

e|---------------------------------------------------------------------------|
b|-------3----------3-------------------------3---------3--------------------|
g|-----------------------0-2--------------------------------2/4/2-----0------|
D|-5-4-5------5-4-5------------2-4------5-4-5-----5-4-5------------2----4----|
A|---------------------------------------------------------------------------|
E|---------------------------------------------------------------------------|

e|-0--2--3-2-3-2-3-2-3-5-0-----------------------------------------|
b|--------------------------3-3----------------------3-------------|
g|-------------------------------2--4--5-4-5-4-5-4-5-----2---------|
D|---------------------------------------------------------5--4----|
A|-----------------------------------------------------------------|
E|-----------------------------------------------------------------|

e|-0--2--3-2-3-2-5-5/7-5-3-2-0-------------------------------------------|
b|------------------------------3-3----------------3-3/5-3---------------|
g|-----------------------------------2--4--5-4-5-4---------5-4-2---------|
D|----------------------------------------------------------------5-4----|
A|-----------------------------------------------------------------------|
E|-----------------------------------------------------------------------|

e|--------------------------------------------------10------------10--7-3-5--|
b|-------3----------3--------------------------------------------------------|
g|-----------------------0-0/2-------------12-11-12-----12-11-12-------------|
D|-5-4-5------5-4-5-------------5-4--0-2-------------------------------------|
A|---------------------------------------------------------------------------|
E|---------------------------------------------------------------------------|

e|-3-2--------0--2--3-2-3-2-3-2-3-5-0---------5--7--8-7-8-7-8-7-8-10-5--3--2-|
b|-------------------------------------3-3-----------------------------------|
g|---------------------------------------------------------------------------|
D|---------------------------------------------------------------------------|
A|---------------------------------------------------------------------------|
E|---------------------------------------------------------------------------|

e|-0--2--3-2-3-2-5-5/7-5-3-2-0-----------------------------------------------|
b|------------------------------3-3------------------3-3/5-3-----------------|
g|-------------------------------------2--4--5-4-5-4---------5-4-2-----------|
D|------------------------------------------------------------------5-4------|
A|---------------------------------------------------------------------------|
E|---------------------------------------------------------------------------|

e|----------3----10----15--10-10------------3--3/5---------------------------|
b|--------3---3--------------------------3-----------------------------------|
g|------------------12---------------12--------------------------------------|
D|-5-4-5--------------------------12-----------------------------------------|
A|---------------------------------------------------------------------------|
E|---------------------------------------------------------------------------|

e|----------10-----------10--------------------------------------------------|
b|---------------------------------------------------------------------------|
g|-12-11-12-----12-11-12-----12--14------------------------------------------|
D|---------------------------------------------------------------------------|
A|---------------------------------------------------------------------------|
E|---------------------------------------------------------------------------|
Suggest correction
Give kudos to tab author, rate the tab!
1 2 3 4 5
comments
print report bad tab
guest
You may want to rate the tab now too:
select rating
Wanna post a correction for this tab? Suggest correction