Oops, an error
Loading. Please wait.

Michael Stabekis - Harmony Tab

28 views 1 this week
no commentswrite comment
1 2 3 4 5
please rate
add to favorites
launch autoscroll
font size
0
reset
how to read this tab
guitar tuner
Tab Pro tools
  • play this tab
  • loop segment
  • change instrument
  • show fretboard
  • metronome
×
Best way to learn
"Michael Stabekis - Harmony"
Autoscroll
slow
fast
+/-
esc
set tempo
stop
Contributor
Difficulty
novice
-------------------------------------------------------------------------------
                            Harmony - Michael Stabekis
-------------------------------------------------------------------------------
Tabbed by: Michael Stabekis
E-mail: michael.stabekis@gmail.com

Tuning: Standard (EADGBe)

_______________________________________________________________________________________________

VERSE:
_______________________________________________________________________________________________

e|-0--0-0-0--0-0--0-0--0-0-0-0-0--0-0-0--0-0--0-0--0-0-0-0-------------------|   }
B|-8--8-8-8--8-8--8-8--8-8-8-8-0--0-0-0--0-0--0-0--0-0-0-0-------------------|   }
G|-9--9-9-9--9-9--9-9--9-9-9-9-8--8-8-8--8-8--8-8--8-8-8-8-------------------|   }
D|-9--9-9-9--9-9--9-9--9-9-9-9-9--9-9-9--9-9--9-9--9-9-9-9-------------------|   } (x3)
A|-7--7-7-7--7-7--7-7--7-7-7-7-6--6-6-6--6-6--6-6--6-6-6-6-------------------|   }
E|-0--0-0-0--0-0--0-0--0-0-0-0-7--7-7-7--7-7--7-7--7-7-7-7-------------------|   }

_______________________________________________________________________________________________

PRE-CHORUS:
_______________________________________________________________________________________________

e|---------------------------------------------------------------------------|
B|---------------------------------------------------------------------------|
G|-5--5-5-5--5-5--5-5--5-5-5-5-7--7-7-7--7-7~--------------------------------|
D|-x--x-x-x--x-x--x-x--x-x-x-x-x--x-x-x--x-x---------------------------------|
A|-3--3-3-3--3-3--3-3--3-3-3-3-5--5-5-5--5-5~--------------------------------|
E|-5--5-5-5--5-5--5-5--5-5-5-5-7--7-7-7--7-7~--------------------------------|

_______________________________________________________________________________________________

CHORUS 1:
_______________________________________________________________________________________________

e|-0---0--0--0---0--0---0--0---0--0--0--0-0--0-0-0--0-0--0-0--0-0-0----------|   }
B|-0---0--0--0---0--0---0--0---0--0--0--0-0--0-0-0--0-0--0-0--0-0-0----------|   }
G|-12--12-12-12--12-12--12-12--12-12-12-x-7--7-7-7--7-5--5-5--5-5-5----------|   }
D|-9---9--9--9---9--9---9--9---9--9--9--x-7--7-7-7--7-5--5-5--5-5-5----------|   } (x2)
A|-10--10-10-10--10-10--10-10--10-10-10-x-5--5-5-5--5-3--3-3--3-3-3----------|   }
E|-0---0--0--0---0--0---0--0---0--0--0--0-x--x-x-x--x-x--x-x--x-x-x----------|   }

e|-0--0-0-0--0-0--0-0--0-0-0-0-0--0-0-0--0-0--0-0--0-0-0-0------|--0~--------|
B|-0--0-0-0--0-0--0-0--0-0-0-0-0--0-0-0--0-0--0-0--0-0-0-0------|--0~--------|
G|-5--5-5-5--5-5--5-5--5-5-5-5-7--7-7-7--7-7--7-7--7-7-7-7-(x2)-|--5~--------|
D|-5--5-5-5--5-5--5-5--5-5-5-5-7--7-7-7--7-7--7-7--7-7-7-7------|--5~--------|
A|-3--3-3-3--3-3--3-3--3-3-3-3-5--5-5-5--5-5--5-5--5-5-5-5------|--3~--------|
E|-x--x-x-x--x-x--x-x--x-x-x-x-x--x-x-x--x-x--x-x--x-x-x-x------|--x---------|

_______________________________________________________________________________________________

VERSE:
_______________________________________________________________________________________________

e|-0--0-0-0--0-0--0-0--0-0-0-0-0--0-0-0--0-0--0-0--0-0-0-0-------------------|   }
B|-8--8-8-8--8-8--8-8--8-8-8-8-0--0-0-0--0-0--0-0--0-0-0-0-------------------|   }
G|-9--9-9-9--9-9--9-9--9-9-9-9-8--8-8-8--8-8--8-8--8-8-8-8-------------------|   }
D|-9--9-9-9--9-9--9-9--9-9-9-9-9--9-9-9--9-9--9-9--9-9-9-9-------------------|   } (x3)
A|-7--7-7-7--7-7--7-7--7-7-7-7-6--6-6-6--6-6--6-6--6-6-6-6-------------------|   }
E|-0--0-0-0--0-0--0-0--0-0-0-0-7--7-7-7--7-7--7-7--7-7-7-7-------------------|   }

_______________________________________________________________________________________________

PRE-CHORUS:
_______________________________________________________________________________________________

e|---------------------------------------------------------------------------|
B|---------------------------------------------------------------------------|
G|-5--5-5-5--5-5--5-5--5-5-5-5-7--7-7-7--7-7~--------------------------------|
D|-x--x-x-x--x-x--x-x--x-x-x-x-x--x-x-x--x-x---------------------------------|
A|-3--3-3-3--3-3--3-3--3-3-3-3-5--5-5-5--5-5~--------------------------------|
E|-5--5-5-5--5-5--5-5--5-5-5-5-7--7-7-7--7-7~--------------------------------|

_______________________________________________________________________________________________

CHORUS 2:
_______________________________________________________________________________________________

e|-0---0--0--0---0--0---0--0---0--0--0--0-0--0-0-0--0-0--0-0--0-0-0----------|   }
B|-0---0--0--0---0--0---0--0---0--0--0--0-0--0-0-0--0-0--0-0--0-0-0----------|   }
G|-12--12-12-12--12-12--12-12--12-12-12-x-7--7-7-7--7-5--5-5--5-5-5----------|   }
D|-9---9--9--9---9--9---9--9---9--9--9--x-7--7-7-7--7-5--5-5--5-5-5----------|   } (x2)
A|-10--10-10-10--10-10--10-10--10-10-10-x-5--5-5-5--5-3--3-3--3-3-3----------|   }
E|-0---0--0--0---0--0---0--0---0--0--0--0-x--x-x-x--x-x--x-x--x-x-x----------|   }

e|-0--0-0-0--0-0--0-0--0-0-0-0-0--0-0-0--0-0--0-0--0-0-0-0-------------------|   }
B|-0--0-0-0--0-0--0-0--0-0-0-0-0--0-0-0--0-0--0-0--0-0-0-0-------------------|   }
G|-5--5-5-5--5-5--5-5--5-5-5-5-7--7-7-7--7-7--7-7--7-7-7-7-------------------|   }
D|-5--5-5-5--5-5--5-5--5-5-5-5-7--7-7-7--7-7--7-7--7-7-7-7-------------------|   } (x2)
A|-3--3-3-3--3-3--3-3--3-3-3-3-5--5-5-5--5-5--5-5--5-5-5-5-------------------|   }
E|-x--x-x-x--x-x--x-x--x-x-x-x-x--x-x-x--x-x--x-x--x-x-x-x-------------------|   }

________________________________________________________________________________________________

BRIDGE:
________________________________________________________________________________________________

e|-0--0-0-0--0-0--0-0--0-0-0-0-0--0-0-0--0-0--0-0--0-0-0-0-|
B|-0--0-0-0--0-0--0-0--0-0-0-0-0--0-0-0--0-0--0-0--0-0-0-0-|
G|-2--2-2-2--2-2--2-2--2-2-2-2-4--4-4-4--4-4--4-4--4-4-4-4-|
D|-2--2-2-2--2-2--2-2--2-2-2-2-4--4-4-4--4-4--4-4--4-4-4-4-|
A|-0--0-0-0--0-0--0-0--0-0-0-0-2--2-2-2--2-2--2-2--2-2-2-2-|
E|-x--x-x-x--x-x--x-x--x-x-x-x-x--x-x-x--x-x--x-x--x-x-x-x-|

e|-0--0-0-0--0-0--0-0--0-0-0-0-0--0-0-0--0-0--0-0--0-0-0-0-|
B|-0--0-0-0--0-0--0-0--0-0-0-0-0--0-0-0--0-0--0-0--0-0-0-0-|
G|-5--5-5-5--5-5--5-5--5-5-5-5-7--7-7-7--7-7--7-7--7-7-7-7-|
D|-5--5-5-5--5-5--5-5--5-5-5-5-7--7-7-7--7-7--7-7--7-7-7-7-|
A|-3--3-3-3--3-3--3-3--3-3-3-3-5--5-5-5--5-5--5-5--5-5-5-5-|
E|-x--x-x-x--x-x--x-x--x-x-x-x-x--x-x-x--x-x--x-x--x-x-x-x-|

e|-0--0-0-0--0-0--0-0--0-0-0-0-0--0-0-0--0-0--0-0--0-0-0-0-|
B|-0--0-0-0--0-0--0-0--0-0-0-0-0--0-0-0--0-0--0-0--0-0-0-0-|
G|-4--4-4-4--4-4--4-4--4-4-4-4-5--5-5-5--5-5--5-5--5-5-5-5-|
D|-4--4-4-4--4-4--4-4--4-4-4-4-5--5-5-5--5-5--5-5--5-5-5-5-|
A|-2--2-2-2--2-2--2-2--2-2-2-2-3--3-3-3--3-3--3-3--3-3-3-3-|
E|-x--x-x-x--x-x--x-x--x-x-x-x-x--x-x-x--x-x--x-x--x-x-x-x-|

e|-0--0-0-0--0-0--0-0--0-0-0-0--------------------------------------|
B|-0--0-0-0--0-0--0-0--0-0-0-0--------------------------------------|
G|-7--7-7-7--7-7--7-7--7-7-7-7-12--12-12-12--x-11-11--11-11-11--x-x-|
D|-7--7-7-7--7-7--7-7--7-7-7-7-x---x--x--x---x-x--x---x--x--x---x-x-|
A|-5--5-5-5--5-5--5-5--5-5-5-5-10--10-10-10--x-9--9---9--9--9---x-x-|
E|-x--x-x-x--x-x--x-x--x-x-x-x-x---x--x--x---x-10-10--10-10-10--x-x-|

e|-0--0-0-0--0-0--0-0--0-0-0-0-0--0-0-0--0-0--0-0--0-0-0-0-|
B|-0--0-0-0--0-0--0-0--0-0-0-0-0--0-0-0--0-0--0-0--0-0-0-0-|
G|-5--5-5-5--5-5--5-5--5-5-5-5-7--7-7-7--7-7--7-7--7-7-7-7-|
D|-5--5-5-5--5-5--5-5--5-5-5-5-7--7-7-7--7-7--7-7--7-7-7-7-|
A|-3--3-3-3--3-3--3-3--3-3-3-3-5--5-5-5--5-5--5-5--5-5-5-5-|
E|-x--x-x-x--x-x--x-x--x-x-x-x-x--x-x-x--x-x--x-x--x-x-x-x-|

e|-0--0-0-0--0-0--0-0--0-0-0-0---------------------------------------|
B|-0--0-0-0--0-0--0-0--0-0-0-0---------------------------------------|
G|-9--9-9-9--9-9--9-9--9-9-9-9-16--16-16-16---x-14-14--14-14-14--x-x-|
D|-9--9-9-9--9-9--9-9--9-9-9-9-x---x--x--x----x-0--0---0--0--0---x-x-|
A|-7--7-7-7--7-7--7-7--7-7-7-7-14--14-14-14---x-12-12--12-12-12--x-x-|
E|-x--x-x-x--x-x--x-x--x-x-x-x-15--15-15-15---x-14-14--14-14-14--x-x-|

_______________________________________________________________________________________________

CHORUS 3:
_______________________________________________________________________________________________

e|-0~-------------------------------------0~----------0~---------------------|   }
B|-0~-------------------------------------0~----------0~---------------------|   }
G|-12~------------------------------------7~----------5~---------------------|   }
D|-9~-------------------------------------7~----------5~---------------------|   } (x2)
A|-10~------------------------------------5~----------3~---------------------|   }
E|-0~-------------------------------------x-----------x----------------------|   }

e|-0--0-0-0--0-0--0-0--0-0-0-0-0--0-0-0--0-0--0-0--0-0-0-0-------------------|   }
B|-0--0-0-0--0-0--0-0--0-0-0-0-0--0-0-0--0-0--0-0--0-0-0-0-------------------|   }
G|-5--5-5-5--5-5--5-5--5-5-5-5-7--7-7-7--7-7--7-7--7-7-7-7-------------------|   }
D|-5--5-5-5--5-5--5-5--5-5-5-5-7--7-7-7--7-7--7-7--7-7-7-7-------------------|   } (x2)
A|-3--3-3-3--3-3--3-3--3-3-3-3-5--5-5-5--5-5--5-5--5-5-5-5-------------------|   }
E|-x--x-x-x--x-x--x-x--x-x-x-x-x--x-x-x--x-x--x-x--x-x-x-x-------------------|   }


************************************

| /   slide up
| \   slide down
| h   hammer-on
| p   pull-off
| ~   vibrato
| +   harmonic
| x   Mute note
| b   Bend
| pb  Pre-bend
| br  Bend release
| pbr Pre-bend release
| brb Bend release bend

************************************
comments
We did not receive enough feedback on this tab! Please rate:
print report bad tab
1 2 3 4 5
I want to post or [tab]
guest
You may want to rate the tab now too:
select rating
Please do not post tabs as comments. Select "correction" instead!