Oops, an error
Loading. Please wait.

Mickey Jones - Double Bogey Blues Tab

2,314 views 12 this week
no commentswrite comment
1 2 3 4 5
please rate
add to favorites
launch autoscroll
font size
0
reset
how to read this tab
guitar tuner
Autoscroll
slow
fast
+/-
esc
set tempo
stop
Help us to improve Ultimate-Guitar.com Take our survey!
×
Author
benjo48 2,230
Double Bogey Blues by Mickey Jones
from Tin Cup Soundtrack

e-----------|
B-----------|
G-----------|
D------0h2--|
A-----------|
E-2bp0------|

MAIN RIFF
e-----------------------------------|
B-----------------------------------|
G-----------------------------------|
D-2-22-22-2-------2-22-2-22-2-------|
A-2-22-22-2-------2-22-2-22-2-------|
E-0-00-00-0-5b-3--0-00-0-00-0-5b-3--|

CHORUS
e--------------------------------------------------------------------------|
B--------------------------------------------------------------------------|
G--------------------------------------------------------------------------|
D-7-77-77-77-77-77-77--2-22-22-22-22-22--9-99-99-99-99-99--7-77-77-77-77-77|
A-7-77-77-77-77-77-77--2-22-22-22-22-22--9-99-99-99-99-99--7-77-77-77-77-77|
E-5-55-55-55-55-55-55--0-00-00-00-00-00--7-77-77-77-77-77--5-55-55-55-55-55|

strum
e---------------|
B---------------|
G---------------|
D-/12-12-12-12--|
A-/12-12-12-12--|
E-/12-12-12-12--|

OUTRO
e-000-000-000-000-0--------|
B-555-333-222-111-0--------|
G--------------------2h3h4-|
D--------------------------|
A--------------------------|
E--------------------------|

Lyrics

It's early Sunday morning, the sun is coming up
I'm on the tee at seven, I'm here to try my luck
They say this games a tough one, but I'll give it my best shot
Cuz the bunkers look like beaches and the greens like parking lots

Oh lord....what I'm I gonna do, Help me keep my head down
And save me from these double bogey blues

First I pull out my driver, check my stance and grip
I'm trying to remember every Nicklaus tip
Straighten that left elbow, slightly bend your knees
Keep that ball behind you, and look out for those trees

Oh lord....what club should I use, I'm lost out in the forrest
Save me from those double bogey blues

Lead break

Well I started out with three balls, now two of them are lost
Got two hundred yards of water that I gotta get across
Did I hear somebody talking about a Forty dollar bet
I got Thirty in my pocket, but I won't let em' see me sweat

Oh Lord....the next Bud's for you, help me with this three wood
Save me from those double bogey blues

Well I'm on the eighteenth and seven, my knees began to shake
I'm praying I can one putt, try to save an eight
It's a forty dollar nassau, if I sink this I'm in lock
I'll be sitting in the club house, sippin' bourbon on the rocks

Oh Lord....what am I gonna do, Help me keep my head down
Save me from these double bogey blues

Oh oh oh Lord....I can't afford to lose, I'll be in church next Sunday
Just save me from those double Bogey Blues.



Any corrections please comment
Thanks
Suggest correction
What's this?
You can suggest a correction to this tab. Community and Mods will review your correction and vote to approve or reject it.
comments
We did not receive enough feedback on this tab! Please rate:
print report bad tab
1 2 3 4 5
guest
You may want to rate the tab now too:
select rating
Please do not post tabs as comments. Select "correction" instead!