Oops, an error
Loading. Please wait.

Mid Day Silence - Burning Trees Tab

53 views 1 this week
no commentswrite comment
1 2 3 4 5
3 more votes to show rating
add to favorites
launch autoscroll
font size
0
reset
how to read this tab
guitar tuner
Autoscroll
slow
fast
+/-
esc
set tempo
stop
Help us to improve Ultimate-Guitar.com Take our survey!
×
Author
Tuning
C G C F A D
Tabbed By Mid Day Silence
Mid Day Silence
"Burning Trees"
Drop C

crunkassshit.
so check it, this is my song,
some people wanna learn it,
so i posted it on here.
check me out on myspace and facebook

http://www.myspace.com/middaysilence
http://www.facebook.com/pages/Mid-Day-Silence/309371079776


so here it is,
its not too challenging, just a matter
of piecing it together.


Guitar 1.

intro 4x
|-------|
|-------|
|-xx-7--|
|-xx-x--|
|-xx-5--|
|-------|

play this 2x
|-----------------|
|-----------------|
|--7--14--12--7---|
|--x--x---x---x---|
|--5--12--10--4---|
|-----------------|
 24x  8x  24x 6x

|-------------------------------|
|--------6-5-6--6-5h6p5--5------|
|--7-----7-6-7---------7--7-6-7-|
|--x-xxx------------------------|
|--5----------------------------|
|-------------------------------|

play this 4x
|-----------------------------------------|
|-----------/17----13-------13------13----|
|-10..9----9----14-----10------10---------|
|------12----------------12------12-------|
|-----------------------------------------|
|-----------------------------------------|
       .                 .       .
breakdown
|----|
|----|
|----|
|-0--|
|-0--|
|-0--|
   .
this part is just open notes really.
just listen for the pattern, it isnt hard.

 play this 2x           after 2nd time
|---------------------|--13--|
|---------------------|--17--|
|---9---9---4---------|------|
|---10--7---5---0-----|------|
|---8---8---3---0-----|------|
|---------------0-----|------|
  listen for timing

2x
|---------------------------------------------------------------------|
|---------------------------------------------------------------------|
|-----------9---14-14-14-14-12-12-12--10p0-7/9..7---------5/10..7-----|
|-----------x---x--x--x--x--x--x--x-------------0h10p0-7--------------|
|-----------8---12-12-12-12/10-10-10----------------------------------|
|--00000000---0-------------------------------------------------------|
   ........   .
2x
|------------------------------------------------------------------|
|------------------------------------------10---10---10---10-------|
|-----------9---14--10p0--10p0--10p0-7/9..7---7----7----7-----7----|
|-----------x---x-----------------------------9----9----9----------|
|-----------8---12-------------------------------------------------|
|--00000000--------------------------------------------------------|
   ........                                   .    .    .

let that ring out
|----|
|----|
|----|
|-0--|
|-0--|
|-0--|


*electronica part*


|---------|
|---------|
|---------|
|-00---00-|
|-00---00-|
|-00---00-|
  ..   ..

struming, listen for timing
|-----------|
|-----------|
|-----------|
|--0--8--5--|
|--0--8--5--|
|--0--8--5--|
play 2x

"burning trees, burning"
|----------------|
|----------------|
|----------------|
|--8--10--5--11--|
|--8--10--5--7---|
|--8--10--5--7---|

the outro breakdown
listen for timing.
|---|----|
|---|----|
|---|----|
|---|-0--|
|-0-|-0--|
|-1-|-0--|
  .   .

(play first part with triplets,
then second part at the end of each measure,
then let it ring out the last time)


-----------------------------------------


Guitar 2

let guitar 1 play twice
then play this twice
|--------|
|--------|
|-xx-10--|
|-xx-x---|
|-xx-8---|
|--------|

           1st   2nd time
            vv  vv
|--------------|-----|
|--------------|-----|
|--10-9--15--9-|-14--|
|--x--x--x---x-|-x---|
|--8--7--13--7-|-12--|
|--------------|-----|
 24x  8x  24x 6x


|------------------0------|
|--6-----6-5-6---6--6-6---|
|--9-----7-6-7--9-9--9----|
|----xxx------------------|
|-------------------------|
|-------------------------|


play all of this like 8 times i think.
|------------------------13-17-13----13-17/20-17----17--|
|-15------15-------15/17----------17-------------18-----|
|---14-14----14-14--------------------------------------|
|-------------------------------------------------------|
|-------------------------------------------------------|
|-------------------------------------------------------|

|------------------------13-17-13-------------------------|
|-15------15-------15/17----------15----15/17..15---------|
|---14-14----14-14-------------------14----------14-------|
|---------------------------------------------------------|
|---------------------------------------------------------|
|---------------------------------------------------------|

2x                      last time
|---------------------|--13--|
|---------------------|--17--|
|---9---9---4---------|------|
|---10--7---5---0-----|------|
|---8---8---3---0-----|------|
|---------------0-----|------|
strumming, listen for timing

2x
|------------------------------------------------------------------------|
|------------6-6-6-6-----------------------------13------13-----13-------|
|---------9--9-9-9-9br---14p0-14p0-14p0-10/12..10----10-9---10-9----10---|
|---------x--------------------------------------------------------------|
|---------8--------------------------------------------------------------|
|00000000----------------------------------------------------------------|
   ........                                           .      .
2x
|---------------------------------------------------------------------|
|---------------------------------------------13------13-----13-------|
|-----------9--2------14p0-14p0-14p0-10/12..10----10-----10-----10----|
|-----------x--x------------------------------------14----14----------|
|-----------8--3------------------------------------------------------|
|--00000000-----------------------------------------------------------|
   ........


let that ring out
|----|
|----|
|----|
|-0--|
|-0--|
|-0--|


*electronica part*


|---------|
|---------|
|---------|
|-00---00-|
|-00---00-|
|-00---00-|
  ..   ..

struming, listen for timing
|-----------|
|-----------|
|-----------|
|--0--8--5--|
|--0--8--5--|
|--0--8--5--|
play 2x

"burning trees, burning"
|----------------|
|----------------|
|----------------|
|--8--10--5--11--|
|--8--10--5--7---|
|--8--10--5--7---|

the outro breakdown
listen for timing.
|---|----|
|---|----|
|---|----|
|---|-0--|
|-0-|-0--|
|-1-|-0--|
  .   .
Suggest correction
Give kudos to tab author, rate the tab!
1 2 3 4 5
comments
print report bad tab
guest
You may want to rate the tab now too:
select rating
Wanna post a correction for this tab? Suggest correction