Oops, an error
Loading. Please wait.

Midicronica - San Francisco Tab

2,349 views 3 this week
1 commentread comment
1 2 3 4 5
2 more votes to show rating
add to favorites
launch autoscroll
font size
0
reset
how to read this tab
guitar tuner
Autoscroll
slow
fast
+/-
esc
set tempo
stop
Help us to improve Ultimate-Guitar.com Take our survey!
×
Author
My first tab so give comments.
Basically a really watered down version of this riff hoping someone will come make a
better version based off of this. Accompaniment chords are D,C#m,F#m.


E:-----------------------------------------------------------------------|
B:-----------------------------------------------------------------------|
G:----------6h7p6-------------6h7p6--------------------------------------|
D:-----7-7-7---7------6-6-6----6-----------4h5p4-------------------------|
A:--5-5---5-----5--4-4---4------4-----4-4-4---4--------------------------|
E:---------------------------------2-2---2-----2---2-2-4-4-5-5-7-7-------|
Suggest correction
Give kudos to tab author, rate the tab!
1 2 3 4 5
comments
print report bad tab
1 comment total.
0 reply
willknightaus 32 Jun 16, 2016 02:24 PM


|-------------------------------------------------------------------
|-------------------------------------------------------------------
|----------6-7-6h7p6-------------4-6-4h6p4--------------------------
|------7-7-----------7-------6-6-----------6-----------2-4-2h4p2----
|--5-5-----------------5-4-4-----------------4-----4-4-----------4--
|----------------------------------------------2-2-----------------2

|--------------------------------
|--------------------------------
|--------------------------------
|----4--------6--------7--------8
|--------------------------------
|--2---2-2/4----4-4/5----5-5/6---

guest
You may want to rate the tab now too:
select rating
Wanna post a correction for this tab? Suggest correction