Oops, an error
Loading. Please wait.

Midnight Rider - My Heart Was Right Tab

280 views 1 this week
no commentswrite comment
1 2 3 4 5
3 more votes to show rating
add to favorites
launch autoscroll
font size
0
reset
how to read this tab
guitar tuner
Autoscroll
slow
fast
+/-
esc
set tempo
stop
Help us to improve Ultimate-Guitar.com Take our survey!
×
Author
Difficulty
Tuning
novice
C G C F A D
-------------------------------------------------------------------------------
			     My Heart Was Right – Midnight Rider
-------------------------------------------------------------------------------
Tabbed by: scorpion618^
Email: markmacva@hotmail.com
Tuning: Drop C (CGCFAd)

Chorus
d|---------------------------------------------------------------------------|
A|---------------------------------------------------------------------------|
F|---------------------------------------------------------------------------|
C|0---10---10----------------------------------------------------------------|
G|0---8----10----------------------------------------------------------------|
C|0---8----10---3/5-0000-5/7-0000—8/10-10\-----------------------------------|
		     xxxx     xxxx

Verse (Very quick release, almost like palm muting)
d|---------------------------------------------------------------------------|
A|---------------------------------------------------------------------------|
F|---------------------------------------------------------------------------|
C|15-15-14-14-15-15---10-10-10-10-10-10-10—-3-3-3-3-3-3-3---10-10-10-10-10-10|
G|12-12-12-12-12-12---8--8--8--8--8--8--8---3-3-3-3-3-3-3---10-10-10-10-10-10|
C|12-12-12-12-12-12---8--8--8--8--8--8--8---3-3-3-3-3-3-3---10-10-10-10-10-10|

Bridge		 1,3	   2	  4						
d|----------------|-------|----|---------------------------------------------|
A|----------------|-------|----|---------------------------------------------|
F|----------------|-------|----|---------------------------------------------|
C|----------------|-------|-6--|-8-------------------------------------------|
G|3/5-----5-----5-|6-6-6/5|-6--|-8-------------------------------------------|
C|0---0-0-0-0-0-0-|0-0-0--|-6--|-8-------------------------------------------|
      x x   x x

d|---------------------------------------------------------------------------|
A|---------------------------------------------------------------------------|
F|---------------------------------------------------------------------------|
C|0-0--------6---0-0--------8---0-0--------6---0-0---------8-----------------|
G|0-0--------6---0-0--------8---0-0--------6---0-0---------8-----------------|
C|0-0--00000-6---0-0--00000-8---0-0--00000-6---0-0--00000--8-----------------|
  x x  xxxxx     x x  xxxxx     x x  xxxxx     x x  xxxxx

X2
d|---------------------------------------------------------------------------|
A|---------------------------------------------------------------------------|
F|---------------------------------------------------------------------------|
C|0-----0---------------6---0-----0---------------8--------------------------|
G|0-----0---------------6---0-----0---------------8--------------------------|
C|0-000-0-000-00000000--6---0-000-0-000-00000000--8--------------------------|
    xxx   xxx xxxxxxxx        xxx   xxx xxxxxxxx

| /  slide up
| \  slide down
| x  Mute note
===============================================================================
Suggest correction
Give kudos to tab author, rate the tab!
1 2 3 4 5
comments
print report bad tab
guest
You may want to rate the tab now too:
select rating
Wanna post a correction for this tab? Suggest correction