Oops, an error
Loading. Please wait.

Mike Lisi - Blanket tab

34 views 1 this week
no commentswrite comment
1 2 3 4 5
3 more votes to show rating
add to favorites
×
Save as Personal and add changes to this tab that will be seen only by you. Learn more ›
×
You can save this tab as Personal to edit and correct it or add notes. All changes will be seen only by you. Learn more »
launch autoscroll
font size
0
reset
how to read this tab
guitar tuner
edit
Autoscroll
slow
fast
+/-
esc
set tempo
stop
Capo on 2
standard tuning

          e|-----------------------------|
          B|---------------------1-------|
    C     G|----------0-------------0----|
          D|-------2----2-----2----------|    <------ These are repeated twice
          A|----3----------3-------------|                 every time
          E|-----------------------------|       

          e|-----------------------------|
          B|---------------------1-------|
    Am    G|----------2-------------2----|    <-------
          D|-------2----2-----2----------|
          A|----0----------0-------------|
          E|-----------------------------|

          e|-----------------------------|
          B|---------------------0-------|
    E     G|----------1-------------1----|         Just remove the 1
          D|-------2----2-----2----------|           for the Em
          A|----2----------2-------------|
          E|-----------------------------|

    

C    Am  
C    Am

    C
Soaking in the sunset stew
      Am
Lying dazed and drunk with you
    E                           Em
Birds and bats performing acts in the trees

   C
If I can nibble on your feet
       Am
And be molded by your body heat
     E                             Em
That cotton candy sky can fall and kill me

C
Open your arms and envelope me
        Am
In your warm and mummifying sheets
E                                         Em
Squeeze me tight enough to wring me of my grief

                        Bulb slide interlude
|-------------------------------------------------
|------------12-\5----------------15-\5-----------
|--3-\9------12-\5------3-\12-----15-\5-----------
|--3-\9-----------------3-\12---------------------
|-------------------------------------------------
|-------------------------------------------------
     C         Am         C         Am
C                           
I don't mind having trouble breathing
|--------------------------------------------------
|--3-\17-------------------------------------------
|--3-\17--------------------21-/7\9/7--------------
|---------------------------21-/7\9/7--------------
|--------------------------------------------------
|--------------------------------------------------
Am
I don't mind having trouble breathing
|--5-\7--8-\12-------------------------------------
|--5-\7--8-\12---19-19-19-/5-----------------------
|----------------19-19-19-/5-----------------------
|--------------------------------------------------
|--------------------------------------------------
|--------------------------------------------------
C
I don't mind having trouble breathing
|--------7-\26------30-/7--------------------------
|--------7-\26------30-/7--------------------------
|-------/------------------------------------------
|------/-------------------------------------------
|-----7--------------------------------------------
|----7---------------------------------------------
E
I don't mind having trouble breathing
|--------------------------------------------------
|--5\-8/7-------------------5\-8/7-----------------
|--5\-8/7-------------------5\-8/7-----------------
|--------------------------------------------------
|--------------------------------------------------
|--------------------------------------------------
Em
If you don't
|--------------------------------------------------
|--------------------------------------------------
|--3-\6/5---------3/0---3/0----------------------------------
|--3-\6/5---------3/0---3/0----------------------------------
|---------------------------\--------------------------
|----------------------------\-----------------------

            
            
Suggest correction
Creating personal tab
Creating personal tab
You can edit any tab online and save it as your Personal.

You can edit, replace or remove any tab part or add personal notes – all changes will be seen only by you.

Personal tabs can be accessed anytime from any device, even offline.
Learn more »
Give kudos to tab author, rate the tab!
1 2 3 4 5
comments
print report bad tab
guest
You may want to rate the tab now too:
select rating
Wanna post a correction for this tab? Suggest correction