Oops, an error
Loading. Please wait.

Miracle Of Sound - Sovngarde Song tab

22,754 views 18 this week
5 commentsread comments
1 2 3 4 5
x 8
add to favorites
×
Save as Personal and add changes to this tab that will be seen only by you. Learn more ›
×
You can save this tab as Personal to edit and correct it or add notes. All changes will be seen only by you. Learn more »
launch autoscroll
font size
0
reset
how to read this tab
guitar tuner
edit
Autoscroll
slow
fast
+/-
esc
set tempo
stop
Author
E|----0--0-1-0---------------------0--0-1-0------3--5----------------------|
B|--------------1---------0--1---------------1---------0--1----------------|
G|---------------2--0--2--0--2----------------2--------0--2----------------|
D|-------------------------------------------------------------------------|
A|--0----------------------------0-----------------------------------------|
E|-------------------------------------------------------------------------|

E|----0--0-1-0------------------------------3--5---------------------------|
B|-------------1---------0--1------0-1--0---------0--1---------------------|
G|--------------2--0--2--0--2----2-------2--------0--2---------------------|
D|-------------------------------------------------------------------------|
A|--0----------------------------------------------------------------------|
E|-------------------------------------------------------------------------|

thats the intro, and the chords are as follows:

         Am           F           G         Am
From the mists of the mountains a deafening call
Am           F        G       G
Bellows down over the plains
     Am      F           G            Am
On a host of battle-worn ears it does fall
        Am              G           Am
Pushing out through the thunder and rain
      Am         F               G            Am
These men of the north they have suffered too long
    Am       F               G      G
The anger it swells in their veins
       Am       F             G         Am
Of the spirited roars of lost warriors' songs
        Am         G        Am
Distant echoes are all that remain


       Dm          Am
And my voice is my violence
          Dm           Am
Clear the sky's frozen tears
       Dm            Am
And no more we'll be silent
          Em
With this Sovngarde song in our ears


       Am    F`
And we stand tall
G           
Sons of the snow
        Am  F
We will not fall
G            
Under these blows
        Am     F
For our hearts they are hardy
    G
Our spirits are strong
        Am         F        G
And our voices are lifted into
               Am
This Sovngarde song

Am, F, G, Am, 
Am F, G,
Am, F, G, Am, 
Am G, Am,

this is played with mostly hamer-ons for the close together notes:
E|-------------------------------------------------------------------------|
B|-------------------------------------------------------------------------|
G|-------------------------------------------------------------------------|
D|--------------------------------------------------0----------------------|
A|-0--023------------0-2-0--0--023------------0-2-3------------------------|
E|-------0--0232--23------3-------0--0232--23------------------------------|
repeat this twice whilst playing these chords (below), then the lyrics come in.
                                   Am, C, G, D X2

Am             C         G        D
   Conquer the anger and ravenous rage!
Am           C            G D
   Make it a part of your power
Am           C             G           D
   Pummeling down let your bloodlust engage!
Am            C               G D
   Under your force they will cower
Am             C       G           D
   Feeling the fury so pure and so bright
Am              C            G D
   Breaking the bonds of surrender
Am           C            G            D
   Under the moon for our home we will fight
Am             C        G    D
   And we will die to defend her


       Dm          Am
And my voice is my violence
          Dm           Am
Clear the sky's frozen tears
       Dm            Am
And no more we'll be silent
          Em
With this Sovngarde song in our ears

       Am    F
And we stand tall
G           
Sons of the snow
        Am  F
We will not fall
G            
Under these blows
        Am     F
For our hearts they are hardy
    G
Our spirits are strong
        Am         F        G
And our voices are lifted into
               Am
This Sovngarde song


      Am       F
These perilous peaks
       G          Am
On the rim of the sky
  Am          F
I move in the midst
       G           
Of the clouds drifting by
       Am         F
At the top of the world
     G             Am
On a white doomful day
       Am          G           Am
Men of wisdom will show me the way

       Am    F
And we stand tall
G           
Sons of the snow
        Am  F
We will not fall
G            
Under these blows
        Am     F
For our hearts they are hardy
    G
Our spirits are strong
        Am         F        G
And our voices are lifted into
               Am
This Sovngarde song


Gavin Dunne has told me these chords are wrong, so i will update them soon. until 
then, this still sounds alright....

            
            
Suggest correction
Creating personal tab
Creating personal tab
You can edit any tab online and save it as your Personal.

You can edit, replace or remove any tab part or add personal notes – all changes will be seen only by you.

Personal tabs can be accessed anytime from any device, even offline.
Learn more »
comments
print report bad tab
5 comments total. Showing first comments.
+1 reply
s1rr34l 59 Jul 23, 2012 01:15 PM

Some changes made to the intro to make it sound better :

e|----0--0-1-0---------------------0--0-1-0------3--5-----0----------------|
B|-------------1----------0-----------------1----------3---0---------------|
G|--2------------2--0--2-----2---2------------2-------------1--------------|
D|-----------------------------------------------------------2-------------|
A|--0------------------------0---0-----------------------------------------|
E|-----------1------3---------------------1------3--------0----------------|


e|----0--0-1-0--------------------------------0----------------------------|
B|-------------1----------0--------0-1--0--------------1-------------------|
G|--2------------2--0--2-----2----2-------2-1---1--2--2-2------------------|
D|-------------------------------------------------------------------------|
A|--0------------------------0---------------------0-----------------------|
E|-----------1------3----------------1------0------------------------------|


Also made a tab for the riff that is played when the song has put the pedal to the metal so to speak:

e|---------------------------------------------------------------------------------------------|
B|---------------------------------------------------------------------------------------------|
G|---------------------------------------------------------------------------------------------|
D|---------------------------------------------------------------------------------------------|
A|---------------------------------------------------------------------------------------------|
E|-5-5-5h7h8--1-1-1h3h5--3-3-3h5h7--5-5-5h3p0--5-5-5h7h8--1-1-1h3h5--3-3-3h5h7--10-10-10-10\(0)|


INTRO X 2

Verse 1:
Am F G Am
From the mists of the mountains a deafening call
Am F G E
Bellows down over the plains
Am F G Am
On a host of battle-worn ears it does fall
F E Am
Pushing out through the thunder and rain

Verse 2:
Am F G Am
These men of the north they have suffered too long
Am F G E
The anger it swells in their veins
Am F G Am
Of the spirited roars of lost warriors' songs
F E Am
Distant echoes are all that remain

Pre-Chorus:
D Am
And my voice is my violence
D Am
Clear the sky's frozen tears
F Am
And no more we'll be silent
F E
With this Sovngarde song in our ears

Chorus :
Am F
And we stand tall
C G
Sons of the snow
Am F
We will not fall
C G
Under these blows
Am F
For our hearts they are hardy
C G
Our spirits are strong
F E
And our voices are lifted into
(Am)INTRO x 1
This Sovngarde song

RIFF x 2

Verse 3:
Am F G Am
Conquer the anger and ravenous rage!
Am F G D
Make it a part of your power
Am F G Am
Pummeling down let your bloodlust engage!
Am F G D
Under your force they will cower

RIFF x 1

Verse 4:
Am F G Am
Feeling the fury so pure and so bright
Am F G D
Breaking the bonds of surrender
Am F G Am
Under the moon for our home we will fight
Am F G D
And we will die to defend her

Pre-Chorus :
D Am
And my voice is my violence
D Am
Clear the sky's frozen tears
F Am
And no more we'll be silent
F E
With this Sovngarde song in our ears

Chorus :
Am F
And we stand tall
C G
Sons of the snow
Am F
We will not fall
C G
Under these blows
Am F
For our hearts they are hardy
C G
Our spirits are strong
F E
And our voices are lifted into
Am F
This Sovngarde song
C G Am F
... Sovngarde song
C G Am F C G F E
... Sovngarde soooooooooooooong

RIFF x 2

INTRO x 1

Verse 5:
Am F
These perilous peaks
G Am
On the rim of the sky
Am F
I move in the midst
G E
Of the clouds drifting by
Am F
At the top of the world
G Am
On a white doomful day
F E Am
Men of wisdom will show me the way

Chorus :
Am F
And we stand tall
C G
Sons of the snow
Am F
We will not fall
C G
Under these blows
Am F
For our hearts they are hardy
C G
Our spirits are strong
F E
And our voi

0 reply
flesx 10 Aug 02, 2013 11:09 AM

Thanks I love this song. :)

0 reply
Yeldarbinator 10 Jan 20, 2014 01:51 AM

Nope, I think you are both wrong.

The verse is something like:

Am C G Am
From the mist of the mountain, a deafening call
Am C G E
Bellows down over the plains
Am C G Am
On a host of battle worn ears it does fall
F E Am
Pushing out through the thunder and rain

Then the prechorus:

Dm Am
And my voice is my violence
Dm Am
Clear the skies frozen tears
Dm Am
And no more we'll be silenced
C E
With this Sovngarde song in our ears

And the fast bit is simply:

Am C G D

guest
You may want to rate the tab now too:
select rating
Wanna post a correction for this tab? Suggest correction