Oops, an error
Loading. Please wait.

Mohit Chauhan - Sadda Haq Tab

version 1
version 1

Whole song

Interactive

58,898 views 168 this week
3 commentsread comments
1 2 3 4 5
excellent!
x 23
add to favorites
launch autoscroll
font size
0
reset
how to read this tab
guitar tuner
Autoscroll
slow
fast
+/-
esc
set tempo
stop
Help us to improve Ultimate-Guitar.com Take our survey!
×
Author
song: sadda haq
artist: A R Rahman, Mohit Chauhan. Orianthi
Movie: Rockstar 2011
E-mail: ravindrachangoer@gmail.com

This are all the guitar riffs played by Orianthi in the song. She sound a but like
Carlos Santana because of the guitar she uses........which is most probably a PRS signature
model..........so enjoy the song.......its a real rock anthem........Its all on the 
F#min scale....so try to improvise a bit here and there..........let me know how y'all liked
it........and do rate!!!!:P:)


[intro riff:]

e:---------------------------------------|
B:---------------------------------------|
G:---------------------------------------|
D:---------------------------------------|
A:-4----5-4-2-4----5-4-2-4~----5-4-2-4~--|
E:---2----------2----------2-------------|

0:24
e:------------9------------9--14----14------------|
B:----9-10-12------9-10-12-------14----14-17-1414-|
G:-11-----------11--------------------------------|
D:------------------------------------------------|
A:------------------------------------------------|
E:------------------------------------------------|

0:54
e:---------------------------14-17-14-16-1616h17p16-14--|
B:----------------------14-17---------------------------|
G:-----------------14-16--------------------------------|
D:------------14-16-------------------------------------|
A:-------14-16------------------------------------------|
E:-14-17------------------------------------------------|

1:12 (very lightly played)
e:----------------------9-12-1414-h17-|
B:----------------10h12---------------|
G:-----------9-11---------------------|
D:------9/11--------------------------|
A:-9-12-------------------------------|
E:------------------------------------|

2:21
e:--------------------------------------------------------|
B:---------------------------------10--12^-12-10-------10-|
G:----------9----9----9h11~-1111-11--------------11-11----|
D:-/11~--11---11---11-------------------------------------|
A:--------------------------------------------------------|
E:--------------------------------------------------------|

3:06 SOLO!!!!

e:--------------------------------------------------------------------------|
B:--------------------------------------------------------------------------|
G:---------7/9----------7/9-9-9-------------------------------------------9-|
D:-9-11-12------9-11-12---------12-12-11-11-9----9-h11-11\9p7-9-------9-11--|
A:--------------------------------------------12-----------------9-12-------|
E:--------------------------------------------------------------------------|

e:---------9-10p9----9-9-12-12-p9---------14-16/17~--------14-16/17-17-17-17-|
B:---10-12--------12----------------14-17------------14-17-------------------|
G:11-------------------------------------------------------------------------|
D:---------------------------------------------------------------------------|
A:---------------------------------------------------------------------------|
E:---------------------------------------------------------------------------|

e:-16-16-14-14--------14-17-16-14----17---------------12---------------------|
B:--------------14-17-------------17-----14\12-10--------12p10---------------|
G:------------------------------------------------11p9--------9\7------------|
D:---------------------------------------------------------------9p7----9/11-|
A:------------------------------------------------------------------9-12-----|
E:---------------------------------------------------------------------------|

e:----------------------12---------------------------------------------------|
B:-----10-12-/14\12-p10----1010-(h12)-------9-10p9---------------------------|
G:9h11-----------------------------------11--------11-9----------------------|
D:------------------------------------11----------------9/11\9----------9/11-|
A:-------------------------------------------------------------12-9-9h12-----|
E:---------------------------------------------------------------------------|

e:--------/9-12-14-14-p12p9--------14--1414-----------------14-17-19^-^-19^~-|
B:---------------------------14-17----------17-17-p14-14-17------------------|
G:-9-9h11--------------------------------------------------------------------|
D:---------------------------------------------------------------------------|
A:---------------------------------------------------------------------------|
E:---------------------------------------------------------------------------|

e:~~19b21-r19p17-19b21r19~-16-17p16------------------------14----------------|
B:----------------------------------17-14------------------14----------------|
G:---------------------------------------16-14----14-16b18--(18)r16-14h16p14-|
D:----------------------------------------------16---------------------------|
A:---------------------------------------------------------------------------|
E:---------------------------------------------------------------------------|

e:-----------------------------------------------------|
B:-----------------------------------------------------|
G:----14---------------14------------------------------|
D:-16---16p14----14-16----16---------------------------|
A:------------16------------14~----1414/16-14----------|
E:------------------------------17------------17-14~~--|

4:24 this is played with some effect pedal)
e:------14-----------|
B:-17br--------------|
G:---------14/16-----|
D:---------------16--|
A:-------------------|
E:-------------------|

5:13 teri waah..
e:-----------|
B:-17b19-r17-|
G:-----------|
D:-----------|
A:-----------|
E:-----------|

5:17
e:-----------------------|
B:-----------------------|
G:-------10h11p10--------|
D:-11-12----------12-11~-|
A:-----------------------|
E:-----------------------|

5:22
e:--------------------------------------|
B:--------------------------------------|
G:-------10h11p10-----------------------|
D:-11-12----------12-11~-12-11-12-11~~~-|
A:--------------------------------------|
E:--------------------------------------|

5:28 outro
e:--------------------------------------------------------------------------|
B:-----------------------------------------------------------9-10-9h10p9----|
G:-----------9-11~911~~-9-11~~-9-11/13-1313/14-13h14p13-11-9-------------11-|
D:------9-11----------------------------------------------------------------|
A:-9-12---------------------------------------------------------------------|
E:--------------------------------------------------------------------------|

e:--9-9-9-9-9-9-9---14--16---17----19b21-17-19-2121p19p17-----14-----/x\--|
B:-12^-12^-12^-12^--17^-19^~-20^~~-----------------------------------/x\--|
G:-------------------------------------------------------------------/x\--|
D:-------------------------------------------------------------------/x\--|
A:------------------------------------------------------------------------|
E:------------------------------------------------------------------------|

this is it.............i'm not really sure bout the outro.....jus play around the F#min
scale...........Do rate!!!!!:Psee ya



************************************

| h   Hammer-on
| p   Pull-off
| r   Release
| b   Bend
| br  Bend release
| /   Slide up
| \   Slide down
| ~   Vibrato

************************************
Suggest correction
comments
print report bad tab
3 comments total.
0 reply
ronniebasak 10 wrote on April 5 2013, 10:01 am

A/c to me the first verse will be somewhat like this...

And in the 2:21 riff, many people can confuse between two 11s or four 1s... please correct 'em

-1 reply
ronniebasak 10 wrote on April 5 2013, 10:02 am

e:---------------------------------------|
B:---------------------------------------|
G:---------------------------------------|
D:---2----------2----------2-------------|
A:-4----5-4-2-4----5-4-2-4~----5-4-2-4~--|
E:---------------------------------------|

I think this should be the intro riff

0 reply
Pranay1793 10 wrote on April 27 2014, 08:52 am, edited at 08:53 am

0:24
e:––––––––––––9––––––––––––9––14––––14–––––––â
€“––––|
B:––––9–10–12––––––9–10–12–––––––14––––14–17–15*14–|
G:–11–––––––––––11––––––––––––––––––––––––––
––––––|
D:–––––––––––––––––––––––––––––––––––––––â
€“––––––––|
A:–––––––––––––––––––––––––––––––––––––––â
€“––––––––|
E:–––––––––––––––––––––––––––––––––––––––â
€“––––––––|

guest
You may want to rate the tab now too:
select rating
Wanna post a correction for this tab? Suggest correction