Oops, an error
Loading. Please wait.

Mollys Nightmare - Bless This Fall tab

286 views 1 this week
no commentswrite comment
1 2 3 4 5
3 more votes to show rating
add to favorites
×
Save as Personal and add changes to this tab that will be seen only by you. Learn more ›
×
You can save this tab as Personal to edit and correct it or add notes. All changes will be seen only by you. Learn more »
launch autoscroll
font size
0
reset
how to read this tab
guitar tuner
edit
Autoscroll
slow
fast
+/-
esc
set tempo
stop
Author
Difficulty
Here's tabs for the song "Bless This Fall" on the next album coming out 2009-2010.


BLESS THIS FALL


Guitar 1: Bill Casey
Guitar 2: Billy Sandland


INTRO:

Guitar 1 (CLEAN)
E-------------------|
B-------------------|
G----8-----8--------| 8x Fade in after 6x
D--6---9-6---9-8-9--|
A-------------------|
E-------------------|
   . . . . . . . .

Guitar 2 (CLEAN)
E-------------------|
B-------------------|
G-------------------| 8x Fade in after 6x
D--6-6-6-6-6-6-6-6--|
A--6-6-6-6-6-6-6-6--|
E--4-4-4-4-4-4-4-4--|
   . . . . . . . .


BREAKDOWN:

Guitar 1
E-------------------|
B-------------------|
G----9-6---8--------| 2x
D--6-----6---9-8-9--|
A-------------------|
E-------------------|
(continued)
E-------------------|
B-------------------|
G----9-8---8--------| 2x
D--6-----6---9-8-9--|
A-------------------|
E-------------------|
(continued)
E-------------------|
B-------------------|
G----9-6---8--------| 2x
D--6-----6---9-8-9--|
A-------------------|
E-------------------|
(continued)
E-------------------|
B-------------------|
G----9-8---8--------|
D--6-----6---9-8-9--|
A-------------------|
E-------------------|
(continued)
E---------------|
B---------------|
G----9-8---8~~--|
D--6-----6------|
A---------------|
E---------------|

Guitar 2
E------------------------------------|
B------------------------------------|
G------------------------------------|
D--6-6-6-6-6-6-6-6--2-2-2-2-2-2-2-2--|
A--6-6-6-6-6-6-6-6--2-2-2-2-2-2-2-2--|
E--4-4-4-4-4-4-4-4--0-0-0-0-0-0-0-0--|
(continued)
E------------------------------------|
B------------------------------------|
G------------------------------------| 2x
D--3-3-3-3-3-3-3-3--4-4-4-4-4-4-4-4--|
A--3-3-3-3-3-3-3-3--4-4-4-4-4-4-4-4--|
E--1-1-1-1-1-1-1-1--2-2-2-2-2-2-2-2--|


PRE VERSE

Guitar 1
E------------------------|
B------------------------|
G------------------------| 2x
D------------------------|
A--------5-6--------5-6--|
E--5-7-8------5-7-8------|
   . . . . .  . . . . .

Guitar 2
E----------------------------------|
B----------------------------------|
G--xxxx-9--xxxx-5--xxxx-8--xxxx-4--|
D--xxxx-x--xxxx-x--xxxx-x--xxxx-x--|
A--xxxx-7--xxxx-3--xxxx-6--xxxx-2--|
E----------------------------------|


VERSE:

Guitar 1
E---------------------------------------|
B---------------------------------------|
G---------------------------------------| 8x
D----------9-9-9-9-7-7-7-7--------------|
A--7-7-7-7-----------------9-9h10-9-----|
E-----------------------------------10--|

Guitar 2
E-----------------------------------|
B-----------------------------------|
G--7-7-7-7-7-7-7-7-7-7-7-7-7-7-7-7--|
D--7-7-7-7-7-7-7-7-7-7-7-7-7-7-7-7--|
A--5-5-5-5-5-5-5-5-5-5-5-5-5-5-5-5--|
E-----------------------------------|
(continued)
E-----------------------------------|
B-----------------------------------|
G--5-5-5-5-5-5-5-5-5-5-5-5-5-5-5-5--|
D--5-5-5-5-5-5-5-5-5-5-5-5-5-5-5-5--|
A--3-3-3-3-3-3-3-3-3-3-3-3-3-3-3-3--|
E-----------------------------------|
(continued)
E-----------------------------------|
B-----------------------------------|
G-----------------------------------|
D--9-9-9-9-9-9-9-9-9-9-9-9-9-9-9-9--|
A--9-9-9-9-9-9-9-9-9-9-9-9-9-9-9-9--|
E--7-7-7-7-7-7-7-7-7-7-7-7-7-7-7-7--|
(continued)
E-----------------------------------|
B-----------------------------------|
G-----------------------------------| 2x
D--5-5-5-5-5-5-5-5-5-5-5-5-5-5-5-5--|
A--5-5-5-5-5-5-5-5-5-5-5-5-5-5-5-5--|
E--3-3-3-3-3-3-3-3-3-3-3-3-3-3-3-3--|

Then

Guitar 1
E----------------------------------------------|
B----------------------------------------------|
G--9-9-9-9-16-16-16-16-14-14-14-14-11-12-11-7--| 2x
D--x-x-x-x--x--x--x--x--x--x--x--x--x--x--x-x--|
A--7-7-7-7-14-14-14-14-12-12-12-12--9-10--9-5--|
E----------------------------------------------|
(continued)
E-----------------------------------------------|
B-----------------------------------------------|
G--9-9-9-9-16-16-16-16-14-14-14-14-11-12-11-12--| 2x
D--x-x-x-x--x--x--x--x--x--x--x--x--x--x--x--x--|
A--7-7-7-7-14-14-14-14-12-12-12-12--9-10--9-10--|
E-----------------------------------------------|

Guitar 2 (PAY ATTENTION TO CHORDS)
E-----------------------------------|
B-----------------------------------|
G--7-7-7-7-7-7-7-7-7-7-7-7-7-7-7-7--|
D--7-7-7-7-7-7-7-7-7-7-7-7-7-7-7-7--|
A--5-5-5-5-5-5-5-5-5-5-5-5-5-5-5-5--|
E-----------------------------------|
                           . . . .
(continued)
E-----------------------------------|
B-----------------------------------|
G--5-5-5-5-5-5-5-5-5-5-5-5-5-5-5-5--|
D--5-5-5-5-5-5-5-5-5-5-5-5-5-5-5-5--|
A--3-3-3-3-3-3-3-3-3-3-3-3-3-3-3-3--|
E-----------------------------------|
                           . . . .
(continued)
E-----------------------------------|
B-----------------------------------|
G-----------------------------------|
D--9-9-9-9-9-9-9-9-9-9-9-9-9-9-9-9--|
A--7-7-7-7-7-7-7-7-7-7-7-7-7-7-7-7--|
E--7-7-7-7-7-7-7-7-7-7-7-7-7-7-7-7--|
                           . . . .
(continued)
E-----------------------------------|
B-----------------------------------|
G-----------------------------------| 2x
D--5-5-5-5-5-5-5-5-5-5-5-5-5-5-5-5--|
A--3-3-3-3-3-3-3-3-3-3-3-3-3-3-3-3--|
E--3-3-3-3-3-3-3-3-3-3-3-3-3-3-3-3--|
                           . . . .

CHORUS:

Guitar 1 (Figure Out Strumming)
E---------------------------------|
B---------------------------------|
G--9-9-9-9-9-9/11-11-11/13-13-13--|
D--x-x-x-x-x-x/-x--x--x/-x--x--x--|
A--7-7-7-7-7-7/-9--9--9/11-11-11--|
E---------------------------------|
(continued)
E---------------------------------|
B---------------------------------|
G--9-9-9-9-9-9/13-13-13\11-11-11--|
D--x-x-x-x-x-x/-x--x--x\-x--x--x--|
A--7-7-7-7-7-7/11-11-11\-9--9--9--|
E---------------------------------|
(continued)
E------------------------------|
B------------------------------|
G--8-8-8-8-8-8/9-9-9/11-11-11--|
D--x-x-x-x-x-x/x-x-x/-x--x--x--|
A--6-6-6-6-6-6/7-7-7/-9--9--9--|
E------------------------------|
(continued)
E---------------------------|
B---------------------------|
G--6-6-6-6-6-6/9-9-9\8-8-8--|
D--x-x-x-x-x-x/x-x-x\x-x-x--|
A--4-4-4-4-4-4/7-7-7\6-6-6--|
E---------------------------|

Guitar 2 (PAY ATTENTION TO CHORDS/Figure Out Strumming)
E---------------------------|
B---------------------------|
G---------------------------|
D--9-9-9-9-9-9-9-9-9-9-9-9--|
A--7-7-7-7-7-7-7-7-7-7-7-7--|
E--7-7-7-7-7-7-7-7-7-7-7-7--|
(continued)
E---------------------------|
B---------------------------|
G---------------------------|
D--5-5-5-5-5-5-5-5-5-5-5-5--|
A--3-3-3-3-3-3-3-3-3-3-3-3--|
E--3-3-3-3-3-3-3-3-3-3-3-3--|
(continued)
E---------------------------|
B---------------------------|
G---------------------------|
D--6-6-6-6-6-6-6-6-6-6-6-6--|
A--4-4-4-4-4-4-4-4-4-4-4-4--|
E--4-4-4-4-4-4-4-4-4-4-4-4--|
(continued)
E---------------------------|
B---------------------------|
G--6-6-6-6-6-6-6-6-6-6-6-6--| 2x
D--x-x-x-x-x-x-x-x-x-x-x-x--|
A--4-4-4-4-4-4-4-4-4-4-4-4--|
E---------------------------|


BREAKDOWN:

Guitar 1
E-------------------|
B-------------------|
G----9-6---8--------| 2x
D--6-----6---9-8-9--|
A-------------------|
E-------------------|
(continued)
E-------------------|
B-------------------|
G----9-8---8--------| 2x
D--6-----6---9-8-9--|
A-------------------|
E-------------------|
(continued)
E-------------------|
B-------------------|
G----9-6---8--------| 2x
D--6-----6---9-8-9--|
A-------------------|
E-------------------|
(continued)
E-------------------|
B-------------------|
G----9-8---8--------|
D--6-----6---9-8-9--|
A-------------------|
E-------------------|
(continued)
E---------------|
B---------------|
G----9-8---8~~--| Repeat Entire Thing
D--6-----6------|
A---------------|
E---------------|

Guitar 2
E------------------------------------|
B------------------------------------|
G------------------------------------|
D--6-6-6-6-6-6-6-6--2-2-2-2-2-2-2-2--|
A--6-6-6-6-6-6-6-6--2-2-2-2-2-2-2-2--|
E--4-4-4-4-4-4-4-4--0-0-0-0-0-0-0-0--|
(continued)
E------------------------------------|
B------------------------------------|
G------------------------------------| 2x
D--3-3-3-3-3-3-3-3--4-4-4-4-4-4-4-4--|
A--3-3-3-3-3-3-3-3--4-4-4-4-4-4-4-4--|
E--1-1-1-1-1-1-1-1--2-2-2-2-2-2-2-2--|

Then

Guitar 2
E------------------------------------|
B------------------------------------|
G------------------------------------|
D--6-6-6-6-6-6-6-6--2-2-2-2-2-2-2-2--|
A--6-6-6-6-6-6-6-6--2-2-2-2-2-2-2-2--|
E--4-4-4-4-4-4-4-4--0-0-0-0-0-0-0-0--|
(continued)
E------------------------------------|
B------------------------------------|
G------------------------------------| 2x
D--4-4-4-4-4-4-4-4--6-6-6-6-9-9-9-9--|
A--4-4-4-4-4-4-4-4--6-6-6-6-9-9-9-9--|
E--2-2-2-2-2-2-2-2--4-4-4-4-7-7-7-7--|


VERSE:

Guitar 1
E----------------------------------------------|
B----------------------------------------------|
G--9-9-9-9-16-16-16-16-14-14-14-14-11-12-11-7--| 2x
D--x-x-x-x--x--x--x--x--x--x--x--x--x--x--x-x--|
A--7-7-7-7-14-14-14-14-12-12-12-12--9-10--9-5--|
E----------------------------------------------|
(continued)
E-----------------------------------------------|
B-----------------------------------------------|
G--9-9-9-9-16-16-16-16-14-14-14-14-11-12-11-12--| 2x
D--x-x-x-x--x--x--x--x--x--x--x--x--x--x--x--x--|
A--7-7-7-7-14-14-14-14-12-12-12-12--9-10--9-10--|
E-----------------------------------------------|

Guitar 2 (PAY ATTENTION TO CHORDS)
E-----------------------------------|
B-----------------------------------|
G--7-7-7-7-7-7-7-7-7-7-7-7-7-7-7-7--|
D--7-7-7-7-7-7-7-7-7-7-7-7-7-7-7-7--|
A--5-5-5-5-5-5-5-5-5-5-5-5-5-5-5-5--|
E-----------------------------------|
                           . . . .
(continued)
E-----------------------------------|
B-----------------------------------|
G--5-5-5-5-5-5-5-5-5-5-5-5-5-5-5-5--|
D--5-5-5-5-5-5-5-5-5-5-5-5-5-5-5-5--|
A--3-3-3-3-3-3-3-3-3-3-3-3-3-3-3-3--|
E-----------------------------------|
                           . . . .
(continued)
E-----------------------------------|
B-----------------------------------|
G-----------------------------------|
D--9-9-9-9-9-9-9-9-9-9-9-9-9-9-9-9--|
A--7-7-7-7-7-7-7-7-7-7-7-7-7-7-7-7--|
E--7-7-7-7-7-7-7-7-7-7-7-7-7-7-7-7--|
                           . . . .
(continued)
E-----------------------------------|
B-----------------------------------|
G-----------------------------------| 2x
D--5-5-5-5-5-5-5-5-5-5-5-5-5-5-5-5--|
A--3-3-3-3-3-3-3-3-3-3-3-3-3-3-3-3--|
E--3-3-3-3-3-3-3-3-3-3-3-3-3-3-3-3--|
                           . . . .


SOLO:

Guitar 1
E------------------------------------|
B------------------------------------|
G--/7-5-4-5-4-------7-5-4-5-4--------|
D-------------5-4-5-----------5-4-5--|
A------------------------------------|
E------------------------------------|
(continued)
E------------------------------------|
B------------------------------------|
G--------2-4-5-4-2-------2-4-5-4-2---|
D--2-4-5-----------2-4-5-------------|
A------------------------------------|
E------------------------------------|
(continued)
E------------------------------------|
B------------------------------------|
G--/7-5-4-5-4-------7-5-4-5-4--------|
D-------------5-4-5-----------5-4-5--|
A------------------------------------|
E------------------------------------|
(continued)
E------------------------------------|
B------------------------------------|
G--------2-4-5-7/9-7-5-4-5-4---------|
D--2-4-5---------------------5-4-5~--|
A------------------------------------|
E------------------------------------|

Then

Guitar 2
E----------------------------------------------|
B----------------------------------------------|
G--/12-10-9-10-9---------12-10-9-10-9----------|
D----------------10-9-10--------------10-9-10--|
A----------------------------------------------|
E----------------------------------------------|
(continued)
E---------------------------------------|
B---------------------------------------|
G---------7-9-10-9-7--------7-9-10-9-7--|
D--7-9-10------------7-9-10-------------|
A---------------------------------------|
E---------------------------------------|
(continued)
E----------------------------------------------|
B----------------------------------------------|
G--/12-10-9-10-9---------12-10-9-10-9----------|
D----------------10-9-10--------------10-9-10--|
A----------------------------------------------|
E----------------------------------------------|
(continued)
E----------------------------------------------|
B----------------------------------------------|
G---------7-9-10-12/14-12-10-9-10-9------------|
D--7-9-10---------------------------10-9-10~~--|
A----------------------------------------------|
E----------------------------------------------|

Then

Both Guitars
E-------------------------------------
B--|   T   R   E   M   O   L   O   |--
G---9-11-13--9-13-11--8-9-11--6-9-8---| 2x
D-------------------------------------|
A-------------------------------------|
E-------------------------------------|


CHORUS:

Guitar 1 (Figure Out Strumming)
E---------------------------------|
B---------------------------------|
G--9-9-9-9-9-9/11-11-11/13-13-13--|
D--x-x-x-x-x-x/-x--x--x/-x--x--x--|
A--7-7-7-7-7-7/-9--9--9/11-11-11--|
E---------------------------------|
(continued)
E---------------------------------|
B---------------------------------|
G--9-9-9-9-9-9/13-13-13\11-11-11--|
D--x-x-x-x-x-x/-x--x--x\-x--x--x--|
A--7-7-7-7-7-7/11-11-11\-9--9--9--|
E---------------------------------|
(continued)
E------------------------------|
B------------------------------|
G--8-8-8-8-8-8/9-9-9/11-11-11--|
D--x-x-x-x-x-x/x-x-x/-x--x--x--|
A--6-6-6-6-6-6/7-7-7/-9--9--9--|
E------------------------------|
(continued)
E---------------------------|
B---------------------------|
G--6-6-6-6-6-6/9-9-9\8-8-8--| 2x
D--x-x-x-x-x-x/x-x-x\x-x-x--|
A--4-4-4-4-4-4/7-7-7\6-6-6--|
E---------------------------|

Guitar 2 (PAY ATTENTION TO CHORDS/Figure Out Strumming)
E---------------------------|
B---------------------------|
G---------------------------|
D--9-9-9-9-9-9-9-9-9-9-9-9--|
A--7-7-7-7-7-7-7-7-7-7-7-7--|
E--7-7-7-7-7-7-7-7-7-7-7-7--|
(continued)
E---------------------------|
B---------------------------|
G---------------------------|
D--5-5-5-5-5-5-5-5-5-5-5-5--|
A--3-3-3-3-3-3-3-3-3-3-3-3--|
E--3-3-3-3-3-3-3-3-3-3-3-3--|
(continued)
E---------------------------|
B---------------------------|
G---------------------------|
D--6-6-6-6-6-6-6-6-6-6-6-6--|
A--4-4-4-4-4-4-4-4-4-4-4-4--|
E--4-4-4-4-4-4-4-4-4-4-4-4--|
(continued)
E---------------------------|
B---------------------------|
G--6-6-6-6-6-6-6-6-6-6-6-6--| 4x
D--x-x-x-x-x-x-x-x-x-x-x-x--|
A--4-4-4-4-4-4-4-4-4-4-4-4--|
E---------------------------|


There you go. You're lucky if you see this tab. This song is pretty much kept on a 
basis.
Suggest correction
Creating personal tab
Creating personal tab
You can edit any tab online and save it as your Personal.

You can edit, replace or remove any tab part or add personal notes – all changes will be seen only by you.

Personal tabs can be accessed anytime from any device, even offline.
Learn more »
Give kudos to tab author, rate the tab!
1 2 3 4 5
comments
print report bad tab
guest
You may want to rate the tab now too:
select rating
Wanna post a correction for this tab? Suggest correction