Oops, an error
Loading. Please wait.

Montage - Rise Tab

174 views 1 this week
4 commentsread comments
1 2 3 4 5
3 more votes to show rating
add to favorites
launch autoscroll
font size
0
reset
how to read this tab
guitar tuner
Autoscroll
slow
fast
+/-
esc
set tempo
stop
Help us to improve Ultimate-Guitar.com Take our survey!
×
Author
Difficulty
novice
This is a riff i came up with for my band. Tell me what you think of it

e|----------------------------------------------------------------------------|
B|----------------------------------------------------------------------------|
G|----------------------------------------------------------------------------|
D|----------------------------------------------------------------------------|
A|-----------------------------5----6-------------------------------------------|
E|-------0-2-3-0-2-3-0-2-3b----------------0-2-3-0-2-3-0-2-3b-----------------|
Repeat 4x

e|----------------------------------------------------------------------------|
B|----------------------------------------------------------------------------|
G|----------------------------------------------------------------------------|
D|----------------------------------------------------------------5-7---------|
A|------------------5-------------------5-7--------------------5-7------------|
E|-5-7----5-7----5-7----5-7---5-5----5-7-------5-7----5-7----5-7--------------|
Suggest correction
Give kudos to tab author, rate the tab!
1 2 3 4 5
comments
print report bad tab
4 comments total. Showing first comments.
0 reply
3matoro45 10 Sep 19, 2008 03:38 PM

im sorry not too good :( the sliding parts ruin it, ill write something down that could be good

0 reply
3matoro45 10 Sep 19, 2008 03:38 PM

or not idk

0 reply
3matoro45 10 Sep 19, 2008 03:43 PM

e|-----------------------------------------------------------------|
B|-----------------------------------------------------------------|
G|-----------------------5----------------------3------------------|
D|----2-3-5-3-2-

guest
You may want to rate the tab now too:
select rating
Wanna post a correction for this tab? Suggest correction