Oops, an error
Loading. Please wait.

Mooncake - Ashtray In The Rain Bass Tab

1,143 views 3 this week
no commentswrite comment
1 2 3 4 5
excellent!
x 1
add to favorites
launch autoscroll
font size
0
reset
guitar tuner
Tab Pro tools
  • play this tab
  • loop segment
  • change instrument
  • show fretboard
  • metronome
Autoscroll
slow
fast
+/-
esc
set tempo
stop
Contributor
Mooncake - Rain In The Ashtray | Tabbed by Bobbyroana (Acder1@live.co.uk)

G|----------------------------------------------------------------------------------|A
D|----------------------------------------------------------------------------------|
A|------------------------------------------------------------------11-11-11-9-9-9-9|
E|12-1212-12-12-12-1212-12-7-77-7-7-77-7-7-12-1212-12-12-12-1212-12-----------------|x2

G|----------------------------------------------------------------------------------|B
D|----------------------------------------------------------------------------------|
A|-----------------------------------------------------11-11-11-9-9-9---------------|
E|12-12-12--12-12-12--7-7-7--7-7-7-12-12-12--12-12-12-------------------------------|x1

Chorus : Part One
G|----------------------------------------------------------------------------------|
D|---------14-14-14-14-----------14-14-14-14-----9-9-9-9-------9-9-9----------------|
A|----------------------------------------------------------------------------------|
E|12-12-12--------------12-12-12------------7-7-7--------7-7-7----------------------| 

Part 2:
G|----------------------------------------------------------------------------------|
D|---------14-14-14-14-------------9-11---------------------------------------------|
A|---------------------11-11-11-11-------9-9-9-9-9-9-9-9----------------------------|
E|-12-12-12-------------------------------------------------------------------------|

Play chorus (Both parts) x2, then A x2, Bx1, Chorus x2, then this :

Part 1:
G|----------------------------------------------------------------------------------|C
D|----------------------------------------------------------------------------------|
A|------------14------14------14----14----14----14---------9-----9-----9---9---9----|
E|12-12-12-12---12-12---12-12----12----12----12----7-7-7-7---7-7---7-7---7---7------| 

Part 2:
G|----------------------------------------------------------------------------------|
D|----------------------------------------------------------------------------------|
A|------------14-----14-------14---14----14--11-11-11-11-9-9-9-9-9-9----------------|
E|12-12-12-12---12-12---12-12----12---12--------------------------------------------|x3

G|----------------------------------------------------------------------------------|
D|----------------------------------------------------------------------------------|
A|----------------------------------------------------------------------------------|
E|0r-0-7-7-0r-0-4-4-2-2-0r----------------------------------------------------------|x4

Chorus x2, C(both parts)x2, end on E-0r. :)
comments
We did not receive enough feedback on this tab! Please rate:
print report bad tab
1 2 3 4 5
I want to post or [tab]
guest
You may want to rate the tab now too:
select rating
Please do not post tabs as comments. Select "correction" instead!