Oops, an error
Loading. Please wait.

More Than Normal - Dynamite Tab

72 views 1 this week
no commentswrite comment
1 2 3 4 5
excellent!
x 1
add to favorites
launch autoscroll
font size
0
reset
how to read this tab
guitar tuner
Tab Pro tools
  • play this tab
  • loop segment
  • change instrument
  • show fretboard
  • metronome
Autoscroll
slow
fast
+/-
esc
set tempo
stop
Contributor
-----------------------------------------------------------------------------
                      more than normal - dynamite
-----------------------------------------------------------------------------
Tabbed by:Allchavsrgay
Email: allchavsrgay@hotmail.com

Tuning:standard


part 1
|----------------------------------------------------------------|
|----------------------------------------------------------------|
|-9-9-9-9-9--------9-9-9-9-9-------------------------------------|  X7
|-9-9-9-9-9-9-9-9--9-9-9-9-9--7-7-7------------------------------|
|-7-7-7-7-7-9-9-9--7-7-7-7-7--7-7-7------------------------------|
|-----------7-7-7-------------5-5-5------------------------------|
part 2
|----------------------------------------------------------|
|----------------------------------------------------------|
|----------------------------------------------------------|  X2
|-9-9-9-9-9-9-9-9--11-11-11-11-11-11-11-11-7-7-7-7-7-7-7-7-|
|-9-9-9-9-9-9-9-9--11-11-11-11-11-11-11-11-7-7-7-7-7-7-7-7-|
|-7-7-7-7-7-7-7-7--9--9--9--9--9--9--9--9--5-5-5-5-5-5-5-5-|
park 3
|--------------------------------------|
|--------------------------------------|
|--------------------------------------|  X2
|-6-6-6-6-7-7-7-7-9-9-9-9-9-9-9-9------|
|-6-6-6-6-7-7-7-7-9-9-9-9-9-9-9-9------|
|-4-4-4-4-5-5-5-5-7-7-7-7-7-7-7-7------|
part 4
|------------------------------------------------------------------------|
|------------------------------------------------------------------------|
|-9-9-9-9-9-9-9-9--------------------------------------------------------| X2
|-9-9-9-9-9-9-9-9-7-7-7-7-7-7-7-7-7-11-11-11-11-11-11-11-9-9-9-9-9-9-9-9-|
|-7-7-7-7-7-7-7-7-7-7-7-7-7-7-7-7-7-11-11-11-11-11-11-11-9-9-9-9-9-9-9-9-|
|-----------------5-5-5-5-5-5-5-5-9-9--9--9--9--9--9--9--7-7-7-7-7-7-7-7-|

part 1 X2
part 2 X2
part 3 X2
Part 4 X4
part 1 X2
bass fill

bridge
|----------------------|
|----------------------|
|-9-9-9-9--------------|  X1
|--9-9-9-9-------------|
|----------------------|
|----------------------|

part 4 X4
part 1 X4

outro
|-------|
|-------|
|-------|
|-2-----| X1 let chord ring out
|-2-----|
|-0-----|



| /  slide up
| \  slide down
| h  hammer-on
| p  pull-off
| ~  vibrato
| +  harmonic
| x  Mute note
=============================================================================
comments
We did not receive enough feedback on this tab! Please rate:
print report bad tab
1 2 3 4 5
I want to post or [tab]
guest
You may want to rate the tab now too:
select rating
Please do not post tabs as comments. Select "correction" instead!