Oops, an error
Loading. Please wait.

Morella - Obsession tab

2 views 1 this week
no commentswrite comment
1 2 3 4 5
3 more votes to show rating
add to favorites
×
Save as Personal and add changes to this tab that will be seen only by you. Learn more ›
×
You can save this tab as Personal to edit and correct it or add notes. All changes will be seen only by you. Learn more »
launch autoscroll
font size
0
reset
how to read this tab
guitar tuner
edit
Autoscroll
slow
fast
+/-
esc
set tempo
stop
Obsession by Morella


[Intro] 

C#|-------------------------------------------------|
G#|-------------------------------------------------|
E |-------------------------------------------------|
B |-10-10---10-10----10-10-10-10-10-10-10-10--------|
F#|-7--7----7--7-----7--7--7--7--7--7--7--7---------|
B |-7--7----7--7-----7--7--7--7--7--7--7--7---------| x2

C#|-------------------------------------------------|
G#|-------------------------------------------------|
E |-------------------------------------------------|
B |-3--3----3--3-----3--3--3--3--3--3--3--3---------|
F#|-0--0----0--0-----0--0--0--0--0--0--0--0---------|
B |-0--0----0--0-----0--0--0--0--0--0--0--0---------| x2

C#|-------------------------------------------------|
G#|-------------------------------------------------|
E |-------------------------------------------------|
B |-9--9----9--9-----9--9--9--9--9--9--9--9---------|
F#|-5--5----5--5-----5--5--5--5--5--5--5--5---------|
B |-5--5----5--5-----5--5--5--5--5--5--5--5---------| x2

C#|-------------------------------------------------|------------------|
G#|-------------------------------------------------|------------------|
E |-------------------------------------------------|------------------|
B |-14-14---14-14----14-14-14-14-14-14-14-14--------|-12-12---12-12----|
F#|-10-10---10-10----10-10-10-10-10-10-10-10--------|-10-10---10-10----|
B |-10-10---10-10----10-10-10-10-10-10-10-10--------|-9--9----9--9-----|
  

[Chorus]
C#|------------------------------------------------------------|
G#|------------------------------------------------------------|
E |------------------------------------------------------------|
B |10-10-10-10-10-10-10-10-10-10-10-10-10-10-10-10-------------|
F#|-7--7--7--7--7--7--7--7--7--7--7--7--7--7--7--7-------------|
B |-7--7--7--7--7--7--7--7--7--7--7--7--7--7--7--7-------------|

C#|------------------------------------------------------------|
G#|------------------------------------------------------------|
E |------------------------------------------------------------|
B |-3--3--3--3--3--3--3--3--3--3--3--3--3--3--3--3-------------|
F#|-0--0--0--0--0--0--0--0--0--0--0--0--0--0--0--0-------------|
B |-0--0--0--0--0--0--0--0--0--0--0--0--0--0--0--0-------------|

C#|------------------------------------------------------------|
G#|------------------------------------------------------------|
E |------------------------------------------------------------|
B |-9--9--9--9--9--9--9--9--9--9--9--9--9--9--9--9-------------|
F#|-5--5--5--5--5--5--5--5--5--5--5--5--5--5--5--5-------------|
B |-5--5--5--5--5--5--5--5--5--5--5--5--5--5--5--5-------------|

C#|------------------------------------------------------------|
G#|------------------------------------------------------------|
E |------------------------------------------------------------|
B |-14-14-14-14-14-14-14-14-12-12-12-12-12-12-12-12------------|
F#|-10-10-10-10-10-10-10-10-10-10-10-10-10-10-10-10------------|
B |-10-10-10-10-10-10-10-10-9--9--9--9--9--9--9--9-------------| x2
  
[Post Chorus]
(fast slide)
(* vibrato) 
C#|--------------------------------------------------------|
G#|------------------------------10/12-13*----10/12-13*----|
E |----7/9-10*----7/9-10*----------------------------------|
B |--------------------------------------------------------|
F#|--------------------------------------------------------|
B |--------------------------------------------------------|
 
[Verse 1] 
C#|-------------------------------------------------|
G#|-------------------------------------------------|
E |-------------------------------------------------|
B |-7--7----7--7-----7--7--7--7--7--7--7--7---------|
F#|-3--3----3--3-----3--3--3--3--3--3--3--3---------|
B |-3--3----3--3-----3--3--3--3--3--3--3--3---------| x2

C#|-------------------------------------------------|
G#|-------------------------------------------------|
E |-------------------------------------------------|
B |-9--9----9--9-----9--9--9--9--9--9--9--9---------|
F#|-5--5----5--5-----5--5--5--5--5--5--5--5---------|
B |-5--5----5--5-----5--5--5--5--5--5--5--5---------| x2

C#|-------------------------------------------------|
G#|-------------------------------------------------|
E |-------------------------------------------------|
B |-10-10---10-10----10-10-10-10-10-10-10-10--------|
F#|-7--7----7--7-----7--7--7--7--7--7--7--7---------|
B |-7--7----7--7-----7--7--7--7--7--7--7--7---------| x2

C#|-------------------------------------------------|
G#|-------------------------------------------------|
E |-------------------------------------------------|
B |-9--9----9--9-----9--9--9--9--9--9--9--9---------|
F#|-7--7----7--7-----7--7--7--7--7--7--7--7---------|
B |-6--6----6--6-----6--6--6--6--6--6--6--6---------| x2
 
[Chorus]
C#|------------------------------------------------------------|
G#|------------------------------------------------------------|
E |------------------------------------------------------------|
B |10-10-10-10-10-10-10-10-10-10-10-10-10-10-10-10-------------|
F#|-7--7--7--7--7--7--7--7--7--7--7--7--7--7--7--7-------------|
B |-7--7--7--7--7--7--7--7--7--7--7--7--7--7--7--7-------------|

C#|------------------------------------------------------------|
G#|------------------------------------------------------------|
E |------------------------------------------------------------|
B |-3--3--3--3--3--3--3--3--3--3--3--3--3--3--3--3-------------|
F#|-0--0--0--0--0--0--0--0--0--0--0--0--0--0--0--0-------------|
B |-0--0--0--0--0--0--0--0--0--0--0--0--0--0--0--0-------------|

C#|------------------------------------------------------------|
G#|------------------------------------------------------------|
E |------------------------------------------------------------|
B |-9--9--9--9--9--9--9--9--9--9--9--9--9--9--9--9-------------|
F#|-5--5--5--5--5--5--5--5--5--5--5--5--5--5--5--5-------------|
B |-5--5--5--5--5--5--5--5--5--5--5--5--5--5--5--5-------------|

C#|------------------------------------------------------------|
G#|------------------------------------------------------------|
E |------------------------------------------------------------|
B |-14-14-14-14-14-14-14-14-12-12-12-12-12-12-12-12------------|
F#|-10-10-10-10-10-10-10-10-10-10-10-10-10-10-10-10------------|
B |-10-10-10-10-10-10-10-10-9--9--9--9--9--9--9--9-------------| x2
 
[Bridge]
C#|------------------------------------------------------------|
G#|------------------------------------------------------------|
E |------------------------------------------------------------|
B |10-10-10-10-10-10-10-10-10-10-10-10-10-10-10-10-------------|
F#|-7--7--7--7--7--7--7--7--7--7--7--7--7--7--7--7-------------|
B |-7--7--7--7--7--7--7--7--7--7--7--7--7--7--7--7-------------|

C#|------------------------------------------------------------|
G#|------------------------------------------------------------|
E |------------------------------------------------------------|
B |-9--9--9--9--9--9--9--9--9--9--9--9--9--9--9--9-------------|
F#|-7--7--7--7--7--7--7--7--7--7--7--7--7--7--7--7-------------|
B |-6--6--6--6--6--6--6--6--6--6--6--6--6--6--6--6-------------|

C#|------------------------------------------------------------|
G#|------------------------------------------------------------|
E |------------------------------------------------------------|
B |-9--9--9--9--9--9--9--9--9--9--9--9--9--9--9--9-------------|
F#|-5--5--5--5--5--5--5--5--5--5--5--5--5--5--5--9-------------|
B |-5--5--5--5--5--5--5--5--5--5--5--5--5--5--5--5-------------|

C#|------------------------------------------------------------|
G#|------------------------------------------------------------|
E |------------------------------------------------------------|
B |-5--5--5--5--5--5--5--5--4--4--4--4--4--4--4--4-------------|
F#|-3--3--3--3--3--3--3--3--3--3--3--3--3--3--3--3-------------|
B |-3--3--3--3--3--3--3--3--3--3--3--3--3--3--3--3-------------| x2



{p.m.]...............................................................
C#|------------------------------------------------------------------|
G#|------------------------------------------------------------------|
E |------------------------------------------------------------------|
B |------------------------------------------------------------------|
F#|------------------------------------------------------------------|
B |-7-7-7-7-7-7-7-7-7-7-7-7-7-7-7-7-7-7-7-7-7-7-7-7-7-7-7-7-7-7-7-7--|


{p.m.]...............................................................
C#|------------------------------------------------------------------|
G#|------------------------------------------------------------------|
E |------------------------------------------------------------------|
B |------------------------------------------------------------------|
F#|------------------------------------------------------------------|
B |-9-9-9-9-9-9-9-9-9-9-9-9-9-9-9-9-9-9-9-9-9-9-9-9-9-9-9-9-9-9-9-9--|

{p.m.]...............................................................
C#|------------------------------------------------------------------|
G#|------------------------------------------------------------------|
E |------------------------------------------------------------------|
B |------------------------------------------------------------------|
F#|------------------------------------------------------------------|
B |-10-10-10-10-10-10-10-10-10-10-10-10-10-10-10-10-10-10-10-10-10-10|

{p.m.]...............................(slowly unmute)....
C#|------------------------------------------------------------------|
G#|------------------------------------------------------------------|
E |------------------------------------------------------------------|
B |------------------------------------------------------------------|
F#|------------------------------------------------------------------|
B |-14-14-14-14-14-14-14-14-14-14-14-14-14-14-14-14-14-14-14-14-14-14|


C#|-------------------------------------------------|
G#|-------------------------------------------------|
E |-------------------------------------------------|
B |-10-10---10-10----10-10-10-10-10-10-10-10--------|
F#|-7--7----7--7-----7--7--7--7--7--7--7--7---------|
B |-7--7----7--7-----7--7--7--7--7--7--7--7---------| x2

C#|-------------------------------------------------|
G#|-------------------------------------------------|
E |-------------------------------------------------|
B |-3--3----3--3-----3--3--3--3--3--3--3--3---------|
F#|-0--0----0--0-----0--0--0--0--0--0--0--0---------|
B |-0--0----0--0-----0--0--0--0--0--0--0--0---------| x2

C#|-------------------------------------------------|
G#|-------------------------------------------------|
E |-------------------------------------------------|
B |-9--9----9--9-----9--9--9--9--9--9--9--9---------|
F#|-5--5----5--5-----5--5--5--5--5--5--5--5---------|
B |-5--5----5--5-----5--5--5--5--5--5--5--5---------| x2

C#|-------------------------------------------------|------------------|
G#|-------------------------------------------------|------------------|
E |-------------------------------------------------|------------------|
B |-14-14---14-14----14-14-14-14-14-14-14-14--------|-12-12---12-12----|
F#|-10-10---10-10----10-10-10-10-10-10-10-10--------|-10-10---10-10----|
B |-10-10---10-10----10-10-10-10-10-10-10-10--------|-9--9----9--9-----| 

C#|-------------------------------------------------|
G#|-------------------------------------------------|
E |-------------------------------------------------|
B |-10-10---10-10----10-10-10-10-10-10-10-10--------|
F#|-7--7----7--7-----7--7--7--7--7--7--7--7---------|
B |-7--7----7--7-----7--7--7--7--7--7--7--7---------| x2

C#|-------------------------------------------------|
G#|-------------------------------------------------|
E |-------------------------------------------------|
B |-3--3----3--3-----3--3--3--3--3--3--3--3---------|
F#|-0--0----0--0-----0--0--0--0--0--0--0--0---------|
B |-0--0----0--0-----0--0--0--0--0--0--0--0---------| x2

C#|-------------------------------------------------|
G#|-------------------------------------------------|
E |-------------------------------------------------|
B |-9--9----9--9-----9--9--9--9--9--9--9--9---------|
F#|-5--5----5--5-----5--5--5--5--5--5--5--5---------|
B |-5--5----5--5-----5--5--5--5--5--5--5--5---------| x2

                                                                         Hold~~~
C#|-------------------------------------------------|------------------|---------|
G#|-------------------------------------------------|------------------|---------|
E |-------------------------------------------------|------------------|---------|
B |-14-14---14-14----14-14-14-14-14-14-14-14--------|-12-12---12-12----|--10-----|
F#|-10-10---10-10----10-10-10-10-10-10-10-10--------|-10-10---10-10----|--7------|
B |-10-10---10-10----10-10-10-10-10-10-10-10--------|-9--9----9--9-----|--7------|
 
[Chorus]
C#|------------------------------------------------------------|
G#|------------------------------------------------------------|
E |------------------------------------------------------------|
B |10-10-10-10-10-10-10-10-10-10-10-10-10-10-10-10-------------|
F#|-7--7--7--7--7--7--7--7--7--7--7--7--7--7--7--7-------------|
B |-7--7--7--7--7--7--7--7--7--7--7--7--7--7--7--7-------------|

C#|------------------------------------------------------------|
G#|------------------------------------------------------------|
E |------------------------------------------------------------|
B |-3--3--3--3--3--3--3--3--3--3--3--3--3--3--3--3-------------|
F#|-0--0--0--0--0--0--0--0--0--0--0--0--0--0--0--0-------------|
B |-0--0--0--0--0--0--0--0--0--0--0--0--0--0--0--0-------------|

C#|------------------------------------------------------------|
G#|------------------------------------------------------------|
E |------------------------------------------------------------|
B |-9--9--9--9--9--9--9--9--9--9--9--9--9--9--9--9-------------|
F#|-5--5--5--5--5--5--5--5--5--5--5--5--5--5--5--5-------------|
B |-5--5--5--5--5--5--5--5--5--5--5--5--5--5--5--5-------------|

C#|------------------------------------------------------------|
G#|------------------------------------------------------------|
E |------------------------------------------------------------|
B |-14-14-14-14-14-14-14-14-12-12-12-12-12-12-12-12------------|
F#|-10-10-10-10-10-10-10-10-10-10-10-10-10-10-10-10------------|
B |-10-10-10-10-10-10-10-10-9--9--9--9--9--9--9--9-------------| x2 
Suggest correction
Creating personal tab
Creating personal tab
You can edit any tab online and save it as your Personal.

You can edit, replace or remove any tab part or add personal notes – all changes will be seen only by you.

Personal tabs can be accessed anytime from any device, even offline.
Learn more »
Give kudos to tab author, rate the tab!
1 2 3 4 5
comments
print report bad tab
guest
You may want to rate the tab now too:
select rating
Wanna post a correction for this tab? Suggest correction