Oops, an error
Loading. Please wait.

Morgan Grace - I Will Eat You Alive Tab

346 views 1 this week
no commentswrite comment
1 2 3 4 5
please rate
add to favorites
launch autoscroll
font size
0
reset
how to read this tab
guitar tuner
Tab Pro tools
  • play this tab
  • loop segment
  • change instrument
  • show fretboard
  • metronome
×
Best way to learn
"Morgan Grace - I Will Eat You Alive"
Autoscroll
slow
fast
+/-
esc
set tempo
stop
Contributor
-------------------------------------------------------------------------------
                             I WILL EAT YOU ALIVE - Morgan Grace
-------------------------------------------------------------------------------
Tabbed by: Elliott M.
Email: ellionte@yahoo.com

Tuning: Standard

INTRO: 1x
e|------------------------------------------------------------------------------|
B|-------------0-2-3-7-5-3-7-6-5-4---3-0-3--------------------------------------|
G|---------2-3---------------------4--------------------------------------------|
D|-0-2-3-4-----------------0-------------0--------------------------------------|
A|-5------------------0-----------2---------------------------------------------|
E|-------2-----3---------------------3------------------------------------------|

CHORUS: 2x
D B      F#  G    D
  I will eat you alive

F#     G        D
I will eat you alive


VERSE:
           Em       A
I'd like to crawl inside you

F#       Bm    G            A        F#
so I can die to haunt and infect you

     G          E            F#     G   A
epitomizes the effect you've had on me


CHORUS: 1x
D B      F#  G    D
  I will eat you alive

F#     G        D
I will eat you alive


VERSE:
           Em         A          F#       Bm
I'd like to lick the wall of your large intestine

G            A        F#                 G        Em
  and snoop around at what you've been ingesting

        A           F#          Bm
I'm nosediving into your pancreas

              G           A          F#       G
you've really pickled yourself is my educated guess

    E       F#       G    A
but this is just the beginning


CHORUS: 2x
D B      F#  G    D
  I will eat you alive

F#     G        D
I will eat you alive


VERSE:
           Em            A             F#         Bm
I'd like to cut off your face so I can just get a kiss

              G                  A
you've been a really, really bad boy

    F#             G
God damn you for resisting me

            Em                   A
I mean your blue eyes are really nice

    F#                 Bm
but will they taste as sweet as they look

G              A                  F#           G
dipped in your blood it'll be my after dinner drink

   E          F#          G        A
oh God I'm so glad that I met you

and now

CHORUS: 1x
D B      F#  G    D
  I will eat you alive

F#     G        D
I will eat you alive

D B F# G D

F#     G        D
I will eat you alive

OUTRO: 1x
e|---------------------------------------------------------------------------|
B|-------------0-2-3-7-5-3-7-6-5-4-3---3--3----------------------------------|
G|---------2-3-----------------------4-3--2----------------------------------|
D|-0-2-3-4-----------------0--------------0----------------------------------|
A|-5-----------------0-----------2-------------------------------------------|
E|-------2-----3-----------------------3-------------------------------------|


************************************

| /   slide up
| \   slide down
| h   hammer-on
| p   pull-off
| ~   vibrato
| +   harmonic
| x   Mute note
| b   Bend
| pb  Pre-bend
| br  Bend release
| pbr Pre-bend release
| brb Bend release bend

************************************
comments
We did not receive enough feedback on this tab! Please rate:
print report bad tab
1 2 3 4 5
I want to post or [tab]
guest
You may want to rate the tab now too:
select rating
Please do not post tabs as comments. Select "correction" instead!