Oops, an error
Loading. Please wait.

Morning Becomes Electric - Homeward Bound Bass Tab

175 views 1 this week
no commentswrite comment
1 2 3 4 5
please rate
add to favorites
launch autoscroll
font size
0
reset
guitar tuner
Autoscroll
slow
fast
+/-
esc
set tempo
stop
Help us to improve Ultimate-Guitar.com Take our survey!
×
Difficulty
intermediate
Homeward Bound
(bass instrumental)

X = Palm Mute
S = Slap

G|-----------------|
D|-----------------|
A|-----------------|
E|-9-9-9-9-8-8-8-8-|

G|-------------------------------------------------|
D|-7-7-7-7-7-7-7-7-7-7-7-7-9-9-9-9-9-9-8-8-8-8-8-8-|
A|-------------------------------------------------|
E|-------------------------------------------------|

G|---------------|
D|-3-3-3-3-3-----|
A|---------------|
E|---------------| x 4

G|-------------------------------------|
D|-3-3-3-3-3-6-6-6-6-3-3-3-3-3-7-7-7-7-|
A|-------------------------------------|
E|-------------------------------------|

G|-----------------------------------------|
D|-3-3-3-3-3-10-10-10-10-3-3-3-3-3-8-8-8-8-|
A|-----------------------------------------|
E|-----------------------------------------|

G|-----------------------------------------|
D|-3-3-3-3-3-16-16-16-16-------------------|
A|-----------------------------------------|
E|-----------------------------------------|

G|-------------|
D|-3-3-3-3-3---|
A|-------------|
E|-------------| x 2

G|-------5------11-10----------------------|
D|-----------------------------------------|
A|-----------------------------------------|
E|-3-3-3--3-3-3----------------------------|
   S S S  S S S


This Is Most of the song. There is a little bit more, but i haven't tabbed it out.


www.myspace.com/morningbecomeselectric
Suggest correction
Give kudos to tab author, rate the tab!
1 2 3 4 5
comments
print report bad tab
guest
You may want to rate the tab now too:
select rating
Wanna post a correction for this tab? Suggest correction