Oops, an error
Loading. Please wait.

Morning Drive - Alina Tab

150 views 1 this week
no commentswrite comment
1 2 3 4 5
please rate
add to favorites
launch autoscroll
font size
0
reset
how to read this tab
guitar tuner
Tab Pro tools
  • play this tab
  • loop segment
  • change instrument
  • show fretboard
  • metronome
×
Best way to learn
"Morning Drive - Alina"
Autoscroll
slow
fast
+/-
esc
set tempo
stop
Difficulty
novice
Artist: Morning Drive
Song: Alina
Album: Self-Titled
Here are the 2 guitar parts for the song. 1st Guitar is Rythem.2nd Guitar is Lead.

Standard Tuning: E-A-D-G-B-e

Intro
1st Guitar
e:-----------------------------------------------------------------|
B:-----------------------------------------------------------------|
G:-4-44444444-4-44444444-4-44444444-4-44444444--  X2 End on G:-4---|
D:-2-22222222-2-22222222-2-22222222-2-22222222--            D:-2---|
A:-2-22222222-0-00000000------------0-00000000--            A:-2---|
E:-----------------------2-22222222--------------------------------|

Intro
2nd Guitar
Comes in at 0:10
e:-7---4---2---0------0----5---4---2---0----0----------------------|
B:----------------0----------------------0-------------------------|
G:----------------------------------------------  X2 End on e:-0---|
D:----------------------------------------------            B:-0---|
A:-----------------------------------------------------------------|
E:-----------------------------------------------------------------|

Verse
1st Guitar
0:30                  0:41
e:---------------------------------------------------------|
B:---------------------------------------------------------|
G:-xxxxxxx4~~~~-------9999999-6666666-22222222--4444444----|
D:-xxxxxxx2~~~~-X1----9999999-6666666-22222222--4444444-X2-|
A:-xxxxxxx2~~~~-------7777777-4444444-00000000--2222222----|
E:---------------------------------------------------------|
                      ******* ******* ********  *******
2nd Guitar
0:30                  0:41
e:---------------------0-0-0-0-0-0-0-0-0--0--0--0--0--0--0--0--0-0-0-|
B:--------------------5-5-5-5-5-5-5-7-9-12-12-12-12-12-12-12-12-9-7--|
G:-xxxxxxx9~~~~------------------------------------------------------|
D:-xxxxxxx9~~~~-X1---------------------------------------------------|
A:-xxxxxxx7~~~~------------------------------------------------------|
E:-------------------------------------------------------------------|

Verse
2nd Guitar Continued...
e:--0-0-0-0-0-0-0-0-0--0--0--0--0--0--0-0-0-0-0-|
B:-5-5-5-5-5-5-5-7-9-10-10-10-10-10-10-9-9-7-7--|
G:----------------------------------------------| Picking part X2
D:----------------------------------------------|
A:----------------------------------------------|
E:----------------------------------------------|

Chorus
1st Guitar
1:02
e:---------------------------|
B:---------------------------|
G:-444444444-222222222-------| X4
D:-444444444-222222222-------|
A:-222222222-000000000-------|
E:---------------------------|

2nd Guitar
1:02
e:-4p0---0---0--2p0---0---0--X3-4p0---0---0--2p0--| X1
B:-----0---0--------0---0-----------0---0---------|
G:------------------------------------------------|
D:------------------------------------------------|
A:------------------------------------------------|
E:------------------------------------------------|

Repeat
Intro X2
Verse X4
Chorus X4

Bridge
1st Guitar
2:46   X1                2:56 Let the notes ring
e:---0-0--0-0--0-0--0-0----------------------------------------------|
B:--0-0--0-0--0-0--0-0-----------------------------------------------|
G:-4----2----4----2------9---6---2---4---9---6---2---4---------------|
D:-4----2----4----2------9---6---2---4---9---6---2---4---------------|
A:-2----0----2----0------7---4---0---2---7---4---0---2---------------|
E:-------------------------------------------------------------------|

2nd Guitar
2:46   X1                2:56     X2
e:------------------------0-7--0-4--0-2--0-0-0--|
B:-----------------------0-0--0-0--0-0--0-0--0--|
G:-4----2----4----2-----------------------------|
D:-4----2----4----2-----------------------------|
A:-2----0----2----0-----------------------------|
E:----------------------------------------------|

Repeat Chorus X4

Outro
1st Guitar (Played on Acoustic Guitar
e:-----------------------------------------------------------------|
B:-----------------------------------------------------------------|
G:-4-44444444-4-44444444-4-44444444-4-44444444--  X2 End on G:-4---|
D:-2-22222222-2-22222222-2-22222222-2-22222222--            D:-2---|
A:-2-22222222-0-00000000------------0-00000000--            A:-2---|
E:-----------------------2-22222222--------------------------------|

Tab Created By Morning Drive 2006 All Rights Reserved.
Enjoy!!!
comments
We did not receive enough feedback on this tab! Please rate:
print report bad tab
1 2 3 4 5
I want to post or [tab]
guest
You may want to rate the tab now too:
select rating
Please do not post tabs as comments. Select "correction" instead!