Oops, an error
Loading. Please wait.

Moses N Banazz - Wake Up Bass Tab

69 views 1 this week
no commentswrite comment
1 2 3 4 5
please rate
add to favorites
launch autoscroll
font size
0
reset
guitar tuner
Autoscroll
slow
fast
+/-
esc
set tempo
stop
Help us to improve Ultimate-Guitar.com Take our survey!
×
Author
WAKE UP - MOSES N BANAZZ

Intro
G|-----------------------------------------|
D|--------------3------------------3-----5-|
A|----5-4-5-4-5---5-4-5--5-4-5-4-5--5-4-5--|
E|----------------------3------------------|

G|-------------------------|
D|--------------3----------|
A|----5-4-5-4-5---5-4-5----|
E|----------------------3--|

Drum solo

(IN THE END OF THE DRUM PART PLAY THIS NOTE IN OVER TUNE - D )
G|---
D|--5*
A|---
E|---

G|-----------------------------------------|
D|--------------3------------------3-----5-|
A|----5-4-5-4-5---5-4-5--5-4-5-4-5--5-4-5--|
E|----------------------3------------------|

G|-----------------------------------------|
D|--------------3-----------------5/7-5-3--|
A|----5-4-5-4-5---5-4-5--5-4-5-4-5-------5-|
E|----------------------3------------------|

Verse:
G|---18-18--18-16-16--16-18-18--18-16-16------16h19-|
D|---19-19--19-17-17--17-19-19--19-17-17-17h19------|
A|--------------------------------------------------|
E|--------------------------------------------------|

Bridge 1:
G|--------------------------|
D|--------------------------|
A|----4-2-4-2-4-5-4-5/7-5-4-|
E|---5-5--------------------|

G|-------------------------------|
D|-------------------------------|
A|----4-2-4-2-2-2-2-2-2-XX4-XX55-|
E|---5-5-------------------------|

G|-------|
D|-------|
A|-------|
E|-1/13\1

Chorus:

G|----------------------------------|
D|----------------------------------|
A|----0-3-3/5-5-0-3-0-0-0-0-320-532-|
E|-1-1------------------------------|

G|----------------------------------|
D|----------------------------------|
A|----0-3-3/5-5-0-3-0-0-0-5-7-8-7-5-|
E|-1-1------------------------------|


G|--------------------------------|
D|--------------------------------|
A|----0-3-3/5-5-0-3-0-0-0--3-5-7--|
E|-1-1----------------------------|


G|------------------------------------------17---|
D|-------------------------------------------17--|
A|----0-3-3/5-5-0-3-333333333/15151515151515--15-|
E|-1-1-------------------------------------------|

BIRDGE 2:

G|----------------------|
D|----------------------|
A|------3--5/6-5-3------|
E|----5-----------3-----|

G|----------------------|
D|-----------------5----|
A|------3--5/6-5-3------|
E|----5-----------3-----|

G|----------------------|
D|----------------------|
A|------3--5/6-5-3------|
E|----5-----------3-----|

G|---------7/8-7-5-------------------|
D|-----------------7-6-5-------------|
A|------3----------------7-6-5-5-3-5-|
E|----5------------------------------|

Verse
Bridge 1
Chorus X2
(Every double chorus you need to play in the third time)
G|-----------------|
D|---------7-------|
A|----5-7-8-87-----|
E|-----------------|


Bass Part (Like The Intro)
G|-----------------------------------------|
D|--------------3------------------3-----5-|
A|----5-4-5-4-5---5-4-5--5-4-5-4-5--5-4-5--|
E|----------------------3------------------|

guitar solo (CONTINUE TO PLAY THE BASS PART)

C-PART
in the c-part the tempo is faster the the rest of the song
You need to use B-string (if you dont have one so you can octave it)

G|------|
D|------|
A|------|
E|----1-|   X16 i think
B|-3-2--|

Bridge 2
Chorus X2

The End note is F
G|--|
D|--|
A|--|
E|-1|

:)
Suggest correction
Give kudos to tab author, rate the tab!
1 2 3 4 5
comments
print report bad tab
guest
You may want to rate the tab now too:
select rating
Wanna post a correction for this tab? Suggest correction