Oops, an error
Loading. Please wait.

Moss Icon - Im Back Sleeping Or Fucking Or Something Tab

920 views 1 this week
3 commentsread comments
1 2 3 4 5
x 3
add to favorites
launch autoscroll
font size
0
reset
how to read this tab
guitar tuner
Autoscroll
slow
fast
+/-
esc
set tempo
stop
Help us to improve Ultimate-Guitar.com Take our survey!
×
Author
This is a really great song that is also really simple.  It's five chords, 
feedback and screaming.

e|---------------------------------------------------------------------------|
B|---------------------------------------------------------------------------|
G|----------4------777--666--444--222----------------------------------------|
D|----4--4--4--4---777--666--444--222----------------------------------------|
A|----4--4--2--4---555--444--222--000----------------------------------------|
E|----2--2-----2-------------------------------------------------------------|
Suggest correction
Give kudos to tab author, rate the tab!
1 2 3 4 5
comments
print report bad tab
3 comments total.
0 reply
IommiPage 1,580 Apr 23, 2011 03:39 PM

Sorry, I screwed it up.


e|---------------------------------------------------------------------------|
B|---------------------------------------------------------------------------|
G|----------4------777--666--444--222----------------------------------------|
D|----4--4--4--4---777--666--444--222----------------------------------------|
A|----4--4--2--4---555--444--222--000----------------------------------------|
E|----2--2-----2-------------------------------------------------|

0 reply
IommiPage 1,580 Apr 23, 2011 03:39 PM

Sorry, I screwed it up.


e|---------------------------------------------------------------------------|
B|---------------------------------------------------------------------------|
G|----------4------777--666--444--222----------------------------------------|
D|----4--4--4--4---777--666--444--222----------------------------------------|
A|----4--4--2--4---555--444--222--000----------------------------------------|
E|----2--2-----2-------------------------------------------------|

0 reply
IommiPage 1,580 Apr 23, 2011 03:40 PM

Sorry, I screwed it up.


e|---------------------------------------------------------------------------|
B|---------------------------------------------------------------------------|
G|----------4------777--666--444--222----------------------------------------|
D|----4--4--4--4---777--666--444--222----------------------------------------|
A|----4--4--2--4---555--444--222--000----------------------------------------|
E|----2--2-----2-------------------------------------------------|

guest
You may want to rate the tab now too:
select rating
Wanna post a correction for this tab? Suggest correction