Oops, an error
Loading. Please wait.

Motherjane - Mindstreet Tab

4,652 views 1 this week
2 commentsread comments
1 2 3 4 5
2 more votes to show rating
add to favorites
launch autoscroll
font size
0
reset
how to read this tab
guitar tuner
Autoscroll
slow
fast
+/-
esc
set tempo
stop
Help us to improve Ultimate-Guitar.com Take our survey!
×
Motherjane-Mindstreet

Its tabbed by motherjane guitarist Baiju himself...

The tuning is a D# G# C# F# A# D#

The acoustic chords played in the beginning are Em7 \ Bm7 \ Am7 \ C9 \ D9 . listen to the

song for the improvisation.

While these chords backing, this intro riff is played.

|-----------------------------------|
|----------8-----7------------------|
|-------------9-----7---------------|
|----7--9--------------9------------|
|-----------------------------------|
|-----------------------------------|

This is the second riff comes after that

|-----------------------------------|
|-----------------------------------|
|-----------------------------------|
|--------5--2--4--------------------|
|--0--2-----------5--2--------------|
|-----------------------------------|

The acoustic backings played on while adding up some harmonics by the lead guitars. And the

vocals goes.

This is the riff with distortion played in the chorus part.

|---------------------------------------------------------------------------|
|---------------------------------------------------------------------------|
|------------7/9-----------5/7-------------4\5------------------------------|
|------------7/9-----------5/7-------------4\5------------5\ slide ---------|
|------------5/7-----------3/5-------------2\3------------5\ slide ---------|
|--0-0-0-0-------0-0-0-0------0-0-0-0-------0-0-0-0-3\ slide ---------------|

This riff comes just before lead

|-------------------|-----------------|------------------|-------------------|
|-------------------|-----------------|------------------|-------------------|
|------------------o|----------------o|-----7---4-------o|------9-4---------o|
|------5----4------o|-----7---4------o|---4---4---7-4---o|----5-----7-------o|
|--0-2---4----5-2---|-0-3---4---5-3---|-5----------------|--7---------9-5----|
|-------------------|-----------------|------------------|-------------------|

Then comes the lead portion. I’ve tried my best to tab the lead, its kinda hard to type fret

numbers on the lines.

Anyway, go through it and listen to the song a couple of times, you’ll get the idea.

|-------15-14~--------------------------19---------|
|--18~------------15----17----15-------------------|
|---------------------------------14/16----16------|
|--------------16----16----14----------------------|
|--------------------------------------------------|
|--------------------------------------------------|

|------------------------------------------------|
|---------------12p8-10p8-------------------7~---|
|----------9h12-----------11p7-------------------|
|------7h10--------------------10p7-------7------|
|-----------------------------------9p5-9--------|
|--5h8-------------------------------------------|

|--20 bentup-20-19-17-17h19p—15h17p15--14----------------|
|-----------------------------------------15-------------|
|--------------------------------------------14----------|
|-----------------------------------------------16----14-|
|--------------------------------------------------15----|
|--------------------------------------------------------|



|-------------------------------15p10-----------------------------|
|-------------------15p10-------------------15p10-----------------|
|-------------12h14-------12p11-------12p11-------12p11--12~------|
|-------12h14-----------------------------------------------------|
|-----------------------------------------------------------------|
|-12h15-----------------------------------------------------------|

T T T T T T

|--19-7-18-6-17-5--5\3---3~—--2h3--12—3p2—10/--12—7p5p3--------------------------|
|----------------------5---------------------------------7p5p3-------------------|
|--------------------------------------------------------------------------------|
|--------------------------------------------------------------------------------|
|--------------------------------------------------------------------------------|
|--------------------------------------------------------------------------------|

T T T T T

|-------------------------------7--12—10p8p7------------------------------------|
|-----------------------7-8-10--------------12—10p8p7---------------------------|
|------------------7-9--------------------------------11—9p7p5------------------|
|----------7-9-10----------------------------------------------12—9p7p5---------|
|--7-9-10--------------------------------------------------------------12—9p7p5-|
|-------------------------------------------------------------------------------|

|--------------------------------------------------------------------|
|--------------------------------------------------------------------|
|--------------------------------------------------------------------|
|--------------------------------------------------------------------|
|--10-9-7-7--10-9-7-7--10-9-7-7--12-10-9-9--12-10-9-9--12-10-9-9-----|
|--------------------------------------------------------------------|


|------------------------------------------------------------------------------|
|------------------------------------------------------------------------------|
|------------------------------------------------------------------------------|
|------------------------------------------------------------------------------|
|-14-12-10-10--14-12-10-10--14-12-10-10—-15-14-12-12--15-14-12-12--15-14-12-12-|
|------------------------------------------------------------------------------|

|--------------------------------------------|
|--------------------------------------------|
|--------------------------------------------|
|--------------------------------------------|
|--17-15-14-14--17-15-14-14--17-15-14-14-----|
|--------------------------------------------|

|---------------------------------------------------------------------|
|---------------------------------------------------------------------|
|---------------------------------------------------------------------|
|---------------------------------------------------14-15-17--15-14---|
|------------------14-15-17--15-14--17-15-14-15--17-------------------|
|--17-15-14-15--17----------------------------------------------------|


|---------------------------------------------------------------------|
|---------------------------------------------------15-17-19--17-19---|
|------------------14-16-17--16-14--17-16-14-16--17-------------------|
|--17-15-14-15--17----------------------------------------------------|
|---------------------------------------------------------------------|
|---------------------------------------------------------------------|


|----------------------------15-17-19-17-15--------------17 bent up---|
|------------------15-17-19------------------19-17-15-17--------------|
|--17-16-14-16--17----------------------------------------------------|
|---------------------------------------------------------------------|
|---------------------------------------------------------------------|
|---------------------------------------------------------------------|


|--17 bent up (19)—-17p15-17-------------------------------------------------|
|-----------------------------14~-12—14 bent up ~----------------------------|
|----------------------------------------------------------------------------|
|--------------------------------------------------(2)(arm)wham bar up-------|
|----------------------------------------------------------------------------|
|----------------------------------------------------------------------------|
Suggest correction
Give kudos to tab author, rate the tab!
1 2 3 4 5
comments
print report bad tab
2 comments total.
+1 reply
anshulkarn 10 Jun 12, 2009 12:12 PM

can u upload the tab for fields of sound....i'm specially fond of the solo...great work done guys

0 reply
luv090909 60 Aug 19, 2009 06:20 AM

can we have chasing the sun? :(

guest
You may want to rate the tab now too:
select rating
Wanna post a correction for this tab? Suggest correction