Oops, an error
Loading. Please wait.

Motionless In White - Santas Pissed Tab

5,657 views 1 this week
1 commentread comment
1 2 3 4 5
please rate
add to favorites
launch autoscroll
font size
0
reset
how to read this tab
guitar tuner
Autoscroll
slow
fast
+/-
esc
set tempo
stop
Help us to improve Ultimate-Guitar.com Take our survey!
×
Author
\This is by a band called motionless in white. They're pretty awsome. This is a 
song, the best one in the world :D it's pretty hard, took me a while took work out. P.S. this is 
first tab.

"Jingle bells batman smells robin laid an egg the batmobile lost its wheel and the joker 
your mom!"
D|-----------------------------------------------------------|
A|-----------------------------------------------------------|
F|-----------------------------------------------------------|
C|------------------------------------------8-7-----5--------|
G|-7h8-----------7h8-8h10-8-7h8-----------------10-8---8-7-5-|
C|----000-000-000---------------000-000-000------------------|
      ••• ••• •••               ••• ••• •••
D|--------------------------------------------|
A|--------------------------------------------|
F|--------------------------------------------|
C|------------------------------------------0-|
G|-7h8-----------7h8-8h10-8-7h8-------------0-|
C|----000-000-000---------------000-000-000-0-|
      ••• ••• •••               ••• ••• •••

"Right in the ass"
D|-----------------------------------------------------------|
A|-----------------------------------------------------------|
F|-----------------------------------------------------------|
C|------------------------------------------8-7-----5--------|
G|-7h8-----------7h8-8h10-8-7h8-----------------10-8---8-7-5-|
C|----000-000-000---------------000-000-000------------------|
      ••• ••• •••               ••• ••• •••
D|-------------------------------------------------------|
A|-------------------------------------------------------|
F|-------------------------------------------------------|
C|-------------------------------------------------------|
G|-7h8-----------7h8-8h10-8-7h8--------------------------|
C|----000-000-000---------------000-000-000-88887777555--|
      ••• ••• •••               ••• ••• •••
D|-----------------------------------------------------------|
A|-----------------------------------------------------------|
F|-----------------------------------------------------------|
C|------------------------------------------8-7-----5--------|
G|-7h8-----------7h8-8h10-8-7h8-----------------10-8---8-7-5-|
C|----000-000-000---------------000-000-000------------------|
      ••• ••• •••               ••• ••• •••
D|-------------------------------------------------------|
A|-------------------------------------------------------|
F|-------------------------------------------------------|
C|-------------------------------------------------------|
G|-7h8-----------7h8-8h10-8-7h8--------------------------|
C|----000-000-000---------------000-000-000-88887777555--|
      ••• ••• •••               ••• ••• •••

D|--------------------------------------------|
A|--------------------------------------------|
F|--------------------------------------------|
C|--------------------------------------------|
G|-something-played-really-fast----2*---------|
C|--------------------------------------------|

D|-------------------------------------------------------------------------------|
A|-------------------------------------------------------------------------------|
F|-------------------------------------------------------------------------------|
C|------5-------------------5----------------5-----------8-5---5-----5-----------|
G|8-7-5---8-7-8-7-5-0-8-7-5---8-7-8-6*-8-7-5---8-7-8-7-5-----8---8-7---8-7-8-7-5-|
C|------------------0------------------------------------------------------------|x4

"then well have some fucking pie and well do some caroling"
D|--------------------------------------------------|
A|--------------------------------------------------|
F|--------------------------------------------------|
C|-1010101010-9h10-7h9-7h9-5h7----------------------|
G|----------------------------0-0-3p2-00-000-000-00-|
C|----------------------------0-0-3p2-00-000-000-00-|
                                      •• ••• ••• ••

D|----------------------------------------------------|
A|----------------------------------------------------|
F|----------------------------------------------------|
C|-10101010109999999----------------------------------|
G|-------------------2*---------0-0-3p2-00-000-000-00-|
C|------------------------------0-0-3p2-00-000-000-00-|x3
                                        •• ••• ••• ••

D|---------|
A|---------|
F|---------|
C|-1^--0---|
G|-1^--0---|
C|-1^--0---|

"as we all know christmas is that magical time where the ghost of jeesus rises fom the 
to feed of the flesh of the living"

D|-----------------------------------------------------|
A|-----------------------------------------------------|
F|-----------------------------------------------------|
C|-----------------------------3h4p3h4p3h4-2h3p2h3p2h3-|
G|-1-2-0-1-0-1-4-2-1-2-0-1-0-1-------------------------|
C|-1-2-0-1-0-1-4-2-1-2-0-1-0-1-------------------------|x2

D|----------------|
A|----------------|
F|----------------|
C|----------------|
G|-0~--------8\---|
C|-0~--------8\---|

D|------------------------------------------|
A|------------------------------------------|
F|------------------------------------------|
C|------------------------------------------|
G|-0-0-0-0--0-0--0-0--1-1-1-1--1-1--1-1-----|
C|-0-0-0-0--0-0--0-0--1-1-1-1--1-1--1-1-----|x4

D|-----------------------------------------------------------|
A|-----------------------------------------------------------|
F|-----------------------------------------------------------|
C|------------------------------------------8-7-----5--------|
G|-7h8-----------7h8-8h10-8-7h8-----------------10-8---8-7-5-|
C|----000-000-000---------------000-000-000------------------|
      ••• ••• •••               ••• ••• •••
D|----------------------------------------------------|
A|----------------------------------------------------|
F|----------------------------------------------------|
C|----------------------------------------------------|
G|-7h8-----------7h8-8h10-8-7h8---------------------8-|
C|----000-000-000---------------000-000-000-000-000---|
      ••• ••• •••               ••• ••• ••• ••• •••

D|-----------------------------------------------------------|
A|-----------------------------------------------------------|
F|-----------------------------------------------------------|
C|------------------------------------------8-7-----5--------|
G|-7h8-----------7h8-8h10-8-7h8-----------------10-8---8-7-5-|
C|----000-000-------------------000-000----------------------|
      ••• •••                   ••• •••

D|----------------------------|
A|----------------------------|
F|----------------------------|
C|----------------------------|
G|-7h8-----------7h8-8h10-8---|
C|----000-000-----------------|
      ••• •••

D|-------------------------------------------------------------------------------|
A|-------------------------------------------------------------------------------|
F|-------------------------------------------------------------------------------|
C|------5-------------------5----------------5-----------8-5---5-----5-----------|
G|8-7-5---8-7-8-7-5-0-8-7-5---8-7-8-6*-8-7-5---8-7-8-7-5-----8---8-7---8-7-8-7-5-|
C|------------------0------------------------------------------------------------|x4

D|---------------------------|
A|---------------------------|
F|---------------------------|
C|-8-5-----5-----5-----------|
G|-----8-7---8-7---8-7-8-7-5-|
C|---------------------------|x3

D|-------|
A|-------|
F|-------|
C|-------|
G|-0---0-|
C|-0---0-|
Suggest correction new What's this?
You can suggest a correction to this tab. Community and Mods will review your correction and vote to approve or reject it.
comments
We did not receive enough feedback on this tab! Please rate:
print report bad tab
1 2 3 4 5
1 comment total.
0 reply
gekkedude 39 wrote on September 14 2009, 04:13 am

nice! good tab

guest
You may want to rate the tab now too:
select rating
Please do not post tabs as comments. Select "correction" instead!