Oops, an error
Loading. Please wait.

Mount Waverley Secondary College - School Song Live chords

61 views 1 this week
no commentswrite comment
1 2 3 4 5
3 more votes to show rating
add to favorites
×
Save as Personal and add changes to this tab that will be seen only by you. Learn more ›
×
You can save this tab as Personal to edit and correct it or add notes. All changes will be seen only by you. Learn more »
launch autoscroll
font size
0
reset
transpose
0
reset
display chords
guitar tuner
edit
Autoscroll
slow
fast
+/-
esc
set tempo
stop
Strumming
There is no strumming pattern for this song yet. and get +5 IQ
Artist: Misc Unsigned Bands
Song: Mount Waverley Secondary College - School Song
http://www.mwsc.vic.edu.au/our-song/

[Intro]
e|--------2-0h2p0-----------|-3-------------------------2---------------------|
B|------3--------3-------2--|-------0-----------------3-----------------------|
G|----2------------2-----2--|-----0---0h2p0---------2-------------------------|
D|--0--------------------2--|---0-----------2p0---0---------------------------|
A|---------------------0----|-------------------------------------------------|
E|--------------------------|-3-----------------------------------------------|

e|-----------|------2------|------------------|-------2-----------------------|
B|--------0--|-----3-------|-----2-0---0-2-3--|------3------------------------|
G|------2----|---2---------|---------2--------|----2--------------------------|
D|----0------|-0-----------|---2--------------|---0-----0---------------------|
A|-----------|-------------|-0----------------|-------------------------------|
E|--3--------|-------------|------------------|-------------------------------|

[Verse]
   D           A
Pursuing high achievement,
    G             D
for excellence we strive.
      G               D
Mount Waverley, Mount Waverley,
   A            D 
forever may you thrive.

[Chorus]
G                     D
Mount Waverley, Mount - Waverley,
     A                 D 
your praise we proudly sing.
G
We learn to live,
       D
and we - live to learn.
A                       D   
Knowledge conquers everything.

[Verse]
   D               A
At sport we aim to be the best.
    G              D
Our will to win is strong.
      G             D
Mount Waverley, our victories,
   A            D 
we celebrate in song.

[Chorus]
G                     D
Mount Waverley, Mount - Waverley,
     A                 D 
your praise we proudly sing.
G
We learn to live,
       D
and we - live to learn.
A                       D   
Knowledge conquers everything.

[Verse]
    D               A
The Pheonix and the Unicorn,
     G            D
rose up above the flames.
      G               D
Mount Waverley, Mount Waverley,
       A           D 
You're flying high again.

[Chorus]
G                     D
Mount Waverley, Mount - Waverley,
     A                 D 
your praise we proudly sing.
G
We learn to live,
       D
and we - live to learn.
A                       D   
Knowledge conquers everything.

[Filler]
e|------0-2-------0--|---------0----|---------3-2-0----|-0-2-3-5-2------------|
B|----3-----3-2-3----|---0-2-3------|---0-2-3-------3--|----------------------|
G|--2----------------|-2---------2--|-2----------------|----------------------|
D|-------------------|--------------|------------------|----------------------|
A|-------------------|--------------|------------------|----------------------|
E|-------------------|--------------|------------------|----------------------|

e|--7-7-7-7-7-5------|---------5----|--7-7-7-7-7-7-5---|----------------------|
B|--------------8-7--|-7-5-7-8---7--|---------------8-7|--5-5-5-5-7-5---------|
G|-------------------|--------------|------------------|--------------7-------|
D|-------------------|--------------|------------------|----------------------|
A|-------------------|--------------|------------------|----------------------|
E|-------------------|--------------|------------------|----------------------|

[Chorus]
G                     D
Mount Waverley, Mount - Waverley,
A                      D 
your praise we proudly sing.
G
We learn to live,
       D
and we - live to learn.
A                       D   
Knowledge conquers everything.



************************************

| h  Hammer-on
| p  Pull-off

************************************

            
            
Suggest correction
Creating personal tab
Creating personal tab
You can edit any tab online and save it as your Personal.

You can edit, replace or remove any tab part or add personal notes – all changes will be seen only by you.

Personal tabs can be accessed anytime from any device, even offline.
Learn more »
Give kudos to tab author, rate the tab!
1 2 3 4 5
comments
print report bad tab
guest
You may want to rate the tab now too:
select rating
Wanna post a correction for this tab? Suggest correction