Oops, an error
Loading. Please wait.

Mr Bloe - Grooving With Mr Bloe Bass

923 views 6 this week
no commentswrite comment
1 2 3 4 5
2 more votes to show rating
add to favorites
launch autoscroll
font size
0
reset
guitar tuner
×
Best way to learn
"Mr Bloe - Grooving With Mr Bloe"
Autoscroll
slow
fast
+/-
esc
set tempo
stop
Author
Difficulty
novice
Grooving With Mr. Bloe
Mr. Bloe was the name of the band, all sessions musicians.
Song releasedn in UK May 1970 peaking at number 2 in July.
Tab by bass50611. Catchy little tune and not all that hard
to play. Any comments its bass254@btinternet.com

G|------------|------------------------------------------------------------|
D|-FIRST PART-|------------------------------------------------------------|
A|--NO BASS---|-12\-55555555-55555555-55555555-00000000-00000000-3333333-5-|
E|------------|------------------------------------------------------------|

G|-------------------------------------------------------------------|
D|--------------------------------------------5-5----5-5----77777777-|
A|-77777777---5-5-----5-5-----5-5-----5-----5----7-5----7-5----------|
E|---------------7-5-----7-5-----7-5-----5-7-------------------------|

G|----------------------------------------------------5555-777777--7777----|
D|---------------------------------5-5----5-5----7777------------55-----55-|
A|-5-5-----5-5-----5-5-----5-----5----7-5----7-5---------------------------|
E|----7-5-----7-5-----7-5-----5-7------------------------------------------|

G|-77----------------------------------------------------------------------|
D|----555555--5555--55-----------------------------3-3----3-3----5555------|
A|----------33----33---5-5----5-5----5-5----5-5-------5-3----5-3-----11-33-|
E|------------------------7-5----7-5----7-5----7-5-------------------------|

G|-----------------------------------------------------|
D|-----------------------------3-3----3-3----5555------|
A|-5-5----5-5----5-5----5-5-------5-3----5-3-----11-33-|
E|----7-5----7-5----7-5----7-5-------------------------|

BREAK AND REPEAT FROM INTRO:

G|-777777--7777--77--------------------------------------------------------|
D|-------55----55---555555--5555--55---------------------------------------|
A|------------------------33----33---00000000-000000000-000000000-33333333-|
E|-------------------------------------------------------------------------|

G|------------------------------------------33-55-|
D|----------------------------33333333-5555-------|
A|-77777777-55555555-55555555---------------------|
E|------------------------------------------------|

Outro:               (REPEAT TO FADE/END)
G|---------------------------------33-55-|
D|-------------------33333333-5555-------|
A|-55555555-55555555---------------------|
E|---------------------------------------|
Suggest correction
Give kudos to tab author, rate the tab!
1 2 3 4 5
comments
print report bad tab
guest
You may want to rate the tab now too:
select rating
Wanna post a correction for this tab? Suggest correction