Oops, an error
Loading. Please wait.

Mr Couch - Chunky Funky Punk Tab

182 views 1 this week
no commentswrite comment
1 2 3 4 5
please rate
add to favorites
launch autoscroll
font size
0
reset
how to read this tab
guitar tuner
Autoscroll
slow
fast
+/-
esc
set tempo
stop
Help us to improve Ultimate-Guitar.com Take our survey!
×
Chunky Funky Punk
Mr. Couch
Psychedelic Carpet

Tuning: standard

Intro/Verse:
e|--------------------|
B|--------------------|
G|--------------------|
D|--------------------|
A|-6/7-7-7-7-7-7-7----|
E|-4/5-5-5-5-5-5-5----|

Chorus:

Guitar 1:
e|----xx-------x-0--------------------------------|
B|----xx-------x-0--------------------------------|
G|--6-xx-4-4-4-x-1--------------------------------|
D|--7-xx-5-5-5-x-2-2-2----------------------------|
A|--7-xx-5-5-5-x-2-2-2-2-2-2-2--------------------|
E|--5-xx-3-3-3-x-0-0-0-0-0-0-0--------------------|
                  |-----------|
                  P.M  

Guitar 2:
e|----xx-3-3-3----x-0-0-------------------------|
B|----xx-3-3-3----x-0--0------------------------|
G|--6-xx-4-4-4----x-1---1-----------------------|
D|--7-xx-5-5-5----x-2----2----------------------|
A|--7-xx-5-5-5----x-2-----2---------------------|
E|--5-xx-3-3-3----x-0------0||------------------|
                            || 
                            ||
                            \/ drop whammy bar

first short solo:
|---5------------------|
|--5-------------------|
|7b--7br-5-7-5-5-7-5-5-|
|-------------7--------|
|----------------------|
|----------------------|

Main Solo:
Guitar 1 plays chorus

guitar 2:                                 T.
|----------------------------------15b-12-19p15p12----------12-------------|
|12-------------------------------x---------------15b~~---12---------------|
|14b-x6--14br-12--12-14-12-12~---x---------------------14b----14b-12---12~-|
|---------------14--------------x------------------------------------14||--|
|------------------------------x---------------------------------------||--|
|-----------------------------x----------------------------------------||--|
                                                                       \/

bit before the break:
|---------0~|
|---------0~|
|---------1~|
|7-xx-5-x-2~|
|7-xx-5-x-2~|
|5-xx-3-x-0~|

(the last chord is clean)

1,2,3,4!

outro:
drum fill then guitar 1 just tremelo pick an A5 chord
while guitar 2 does this:

e|12p8p5-x20
B|----------

then hit an A5 Chord and feedback

check us Out At:
www.Myspace.com/themr.couchband
or:
www.Mr.couch.bebo.com
Suggest correction
Give kudos to tab author, rate the tab!
1 2 3 4 5
comments
print report bad tab
guest
You may want to rate the tab now too:
select rating
Please do not post tabs as comments. Select "correction" instead!