Oops, an error
Loading. Please wait.

Mrc - Ignition Tab

68 views 1 this week
no commentswrite comment
1 2 3 4 5
please rate
add to favorites
launch autoscroll
font size
0
reset
how to read this tab
guitar tuner
Autoscroll
slow
fast
+/-
esc
set tempo
stop
Help us to improve Ultimate-Guitar.com Take our survey!
×
Difficulty
advanced
Intro
1st Guitar:
-----------------------------------e
-----------------------------------b
-----------------------------------g
-----12-----12h13p12-----12----1012d        (x4)dont play 10-12 on 4th time.
-1010---1010---------1313--1212----a
-----------------------------------E

Verse Riff-1st Guitar:
-----------------------------------e
-----------------------------------b
-----------------------------------g
----12----12--12----1213-----------d
1010--1010--10--1010---------------a
-----------------------------------E
                                                Play all (x4).
-----------------------------------e
-----------------------------------b
-----------------------------------g
----12----12--12----10121312-------d
1313--1313--13--12----------1312(12)a      (12)ring on 4th time.
-----------------------------------E

Verse Riff-2nd Guitar:
-----------------------------------e
-----------------------------------b
-----------------------------------g
-5-----6----8---6------------------d       (x4)6
-5(x12)6(x4)8(8)6(x8)--------------a           6  
-3-----3----6---4------------------E  Ring out 4 on 4th time.

Chorus Riff-1st Guitar:
---------------10p9p70-------------e
8p7p5--10p9p7----------------------b  Play each part as many times to fit
-----------------------------------g  in with chord changes.
-----------------------------------d
-----------------------------------a
-----------------------------------E

Chorus Riff-2nd Guitar:
-----------------------------------e
-----------------------------------b
-----------------------------------g
5------8------10------13----12-----d
5(x16)-8(x16)-10(x16)-13(x4)12(x4)-a
3------6------8-------11----10-----E


Interlude/Solo Bass Line
------------------------------------------g
--------5-----6-----7---------------------d  Play twice, then variate on 
12/3(x7)-6(x7)-5(x7)-7(x4)6(x2)5(x2)------a  first notes.
------------------------------------------E

Order of Song:
Intro
Verse
Chorus
Interlude/Solo
Intro(only played twice)
verse
Chorus
Outro

Suggest correction
What's this?
You can suggest a correction to this tab. Community and Mods will review your correction and vote to approve or reject it.
comments
We did not receive enough feedback on this tab! Please rate:
print report bad tab
1 2 3 4 5
guest
You may want to rate the tab now too:
select rating
Please do not post tabs as comments. Select "correction" instead!