Oops, an error
Loading. Please wait.

Naifu - Take The Wave Tab

3,063 views 3 this week
1 commentread comment
1 2 3 4 5
please rate
add to favorites
launch autoscroll
font size
0
reset
how to read this tab
guitar tuner
Tab Pro tools
  • play this tab
  • loop segment
  • change instrument
  • show fretboard
  • metronome
×
Best way to learn
"Naifu - Take The Wave"
Autoscroll
slow
fast
+/-
esc
set tempo
stop
Contributor
www.naifu.jp
Naifu - Take the wave tabs

Intro:

Guitar 2
E|--------------------------||----------------------------|
B|--------------------------||----------------------------|
G|--------------------------||-------------------------6--|
D|--3-4----3-4----3-4----3-4||--3-4----3-4----3-4----3----|
A|1-------------------------||1---------------------------|
E|------4------2------4-----||------4------2------4-------|


E|--------------------------||--------------|
B|--------------------------||--------------|
G|--------------------------||--------------|
D|--3-4----3-4----3-4----3-4||--3-4----3-4--|
A|1-------------------------||1-------------|
E|------4------2------4-----||------4-------|


Guitar 1       x2                                                      b4 entering the verse.
E|----------||------------------------------------------------------------|----------|
B|----------||------------------------------------------------------------|----------|
G|----------||-----------------6-6--6-6-6---------------------------------|----------|
D|-4-4--6-66||--8-8-8-8--8-8---6-6--6-6-6---4-4-4-4--4-4---6-6--6-6-6-----|--8--6--4-|
A|-4-4--6-66||--8-8-8-8--8-8---4-4--4-4-4---4-4-4-4--4-4---6-6--6-6-6-----|--8--6--4-|
E|-2-2--4-44||--6-6-6-6--6-6----------------2-2-2-2--2-2---4-4--4-4-4-----|--6--4--2-|


            Guitar 2
            E|-------------------------------------------|
Intro       B|-------------------------------------------|
solo        G|---10-8------------------------------------|
            D|--8------11-10-10h11-8--8------------8-8---|
            A|--------------------------11-11-8-11-------|
            E|-------------------------------------------|


            E|----------------------------------------------------------|
            B|------------------9----9-11-11-9--9-----------------------|
            G|---10-8--------------10---------10---10-8-10--8-----------|
            D|--8-----11-10-11--------------------------------11-8-8-8--|
            A|----------------------------------------------------------|
            E|----------------------------------------------------------|


Verse 

Guitar 1 and i think 2 too

Palm muted   x2                     ,play this part free with no palm muted
E|----------------------------------,---------------|
B|----------------------------------,---------------|
G|----------------------------------,------8-8--6-6-|
D|--44---66---33---44---44---66---66,8-88--8-8--6-6-|
A|--44---66---33---44---44---66---66,8-88--6-6--4-4-|
E|--22---44---11---22---22---44---44,6-66-----------|



Pre-Chorus
guitar 1 and 2
              x2
E|------------------------------------------------------------------|
B|------------------------------------------------------------------|
G|------------------6--6--66-66-6---6-6-6-6-5-5-5-5-6-6-6-6-6-6-6-6-|
D|-8-88--888--88-8--6--6--66-66-6---6-6-6-6-5-5-5-5-6-6-6-6-6-6-6-6-|
A|-8-88--888--88-8--4--4--44-44-4---4-4-4-4-3-3-3-3-4-4-4-4-4-4-4-4-|
E|-6-66--666--66-6--------------------------------------------------|



Chorus            (there is a part where guitar 2 plays a small solo in the middle of the chorus 
                        and i didn't get this part cuz it is not heared well)
          X2
E|---------------------------------||---------------------------------|
B|---------------------------------||---------------------------------|
G|---------------------------------||---------------------------------|
D|-4-4-4-46-66-6-6-3-3-3-34-44-4-4-||-4-4-4-46-66-6-6-8-88-888-88-8-8-|
A|-4-4-4-46-66-6-6-3-3-3-34-44-4-4-||-4-4-4-46-66-6-6-8-88-888-88-8-8-|
E|-2-2-2-24-44-4-4-1-1-1-12-22-2-2-||-2-2-2-24-44-4-4-6-66-666-66-6-6-|


Before Solo
     x4                    (At the end of the 4th time play this part b4 entering the solo)
E|---------------------||-------|
B|---------------------||-------|
G|---------------------||-------|
D|-8-11-11-11--4-6-6-6-||-4-4-6-|
A|-8-11-11-11--4-6-6-6-||-4-4-6-|
E|-6-9--9--9---2-4-4-4-||-2-2-4-|



After the Solo
Palm muted

E|-------------------------------------||-------------------------|
B|-------------------------------------||-------------------------|
G|-------------------------------------||-------------------------|
D|-44444444-66666666-33333333-44444444-||-444-666-8-88-888-88-8-8-|
A|-44444444-66666666-33333333-44444444-||-444-666-8-88-888-88-8-8-|
E|-22222222-44444444-11111111-22222222-||-222-444-6-66-666-66-6-6-|



THE WAY IT GOES:

Intro
verse
pre-chorus
chorus
verse
pre-chorus
chorus
before the solo
for solo, play the chorus
After the solo
Chorus





HOPE YOU ENJOY THE SONG.

Done by:
Philip George
comments
We did not receive enough feedback on this tab! Please rate:
print report bad tab
1 2 3 4 5
1 comment total.
0 reply
daniel.roh.12 wrote on January 11 2014, 12:45 am

Can someone figure out the solo that is played during the chorus?

I want to post or [tab]
guest
You may want to rate the tab now too:
select rating
Please do not post tabs as comments. Select "correction" instead!