Oops, an error
Loading. Please wait.

Nanoripe - Hana No Iro Tab

2,108 views 3 this week
no commentswrite comment
1 2 3 4 5
please rate
add to favorites
launch autoscroll
font size
0
reset
how to read this tab
guitar tuner
Tab Pro tools
  • play this tab
  • loop segment
  • change instrument
  • show fretboard
  • metronome
×
Best way to learn
"Nanoripe - Hana No Iro"
Autoscroll
slow
fast
+/-
esc
set tempo
stop
Contributor
Difficulty
novice
Tab version of Hanasaku Iroha's opening.
Please take a look at my Lip Sync tab, and the chord version of this song as well, 
I put a lot of effort into them.
And hello to everyone over at MAL :D


Intro
[C D Bm Em C D G] <-- Optional
G D G C Em D C x2

Verse
G C D Em
G C D G
Bm Em C D

Ref
C D G Em Am Bm Em D
C D G Em Am Bm D D

Break
C D Bm Em C D G



Lead guitar solo (Plays over the intro)
e|-10~----10--------8-7-------------------------|
B|------7----8~---7-----10-8~----7-8~--7h8p7----|
G|-----------------------------7----------------|
D|----------------------------------------------|
A|----------------------------------------------|
E|----------------------------------------------|

e|---------------------------------------10-10--|
B|-----------------------------------------8--8-|
G|-7---7~----------------7-----7---0-7-0--------|
D|---9-----7-5-4h5p4---5---5-4---4--------------|
A|-------------------5--------------------------|
E|----------------------------------------------|
comments
We did not receive enough feedback on this tab! Please rate:
print report bad tab
1 2 3 4 5
I want to post or [tab]
guest
You may want to rate the tab now too:
select rating
Please do not post tabs as comments. Select "correction" instead!