Oops, an error
Loading. Please wait.

Nanoripe - Lip Sync Tab

579 views 1 this week
no commentswrite comment
1 2 3 4 5
please rate
add to favorites
launch autoscroll
font size
0
reset
how to read this tab
guitar tuner
Autoscroll
slow
fast
+/-
esc
set tempo
stop
Help us to improve Ultimate-Guitar.com Take our survey!
×
Author
Difficulty
intermediate
The insert song from the first episode of Hanasaku Iroha
If you think my way of playing G#m and F#m is too difficult, just use regular bar chords.


Open Chords

E	[079900]
A	[x02200]
B	[x24400]
C#m	[x46600]
F#m	[x44200]
G#m	[x66400]
B/D#	[x69800]

Intro
   E        A        B        E    x2    E
e|-------------5--------2------------|-------|
B|----9--------5--------4--------9---|---9~~-|
G|----9-----6--6-----4--4-----9--9---|---9~~-|
D|-9--9--------7--------4--------9---|---9~~-|
A|-7-----------------2--------7------|---7~~-|
E|----------5------------------------|-------|

Verse
   E        A        B       C#m          E        A         B       E 
e|-------------5--------2--------4-----|--------------5--------2-----------|
B|----9-------2--------4--------5------|-----9-------2--------4---------9--|
G|---9-------2--------4--------6-------|----9-------2--------4---------9---|
D|--9----------------------------------|---9--------------------------9----|
A|-7--------0--------2--------4--------|--7--------0--------2--------7-----|
E|-------------------------------------|-----------------------------------|

   E
e|------|
B|----9-|
G|---9--|
D|--9---|
A|-7----|
E|------|

Palm Mute
A | B | C#m | E B/D# |  
A | B | F#m G#m | A B | B |


Chorus x2
E A B C#m
E A B C#m
F#m G#m A B (Ring out on last)


Break
E A B C#m
				     x3
e|-----0-------0---------0-----0-------|-----0-----0---------0---0~~|
B|---0-----------------0-----0---0-----|---0---------------0-----0~~|
G|-----------2---2---------------------|---------2---2-----------9~~|
D|-------------------------------------|-------------------------9~~|
A|-7------0----------2-----4-----------|--7----0---------2-------7~~|
E|-------------------------------------|-------------------------0~~|
Suggest correction
Give kudos to tab author, rate the tab!
1 2 3 4 5
comments
print report bad tab
guest
You may want to rate the tab now too:
select rating
Please do not post tabs as comments. Select "correction" instead!