Oops, an error
Loading. Please wait.

Narrowroad - Forgiven Tab

41 views 1 this week
no commentswrite comment
1 2 3 4 5
please rate
add to favorites
launch autoscroll
font size
0
reset
how to read this tab
guitar tuner
Autoscroll
slow
fast
+/-
esc
set tempo
stop
Help us to improve Ultimate-Guitar.com Take our survey!
×
Contributor
Difficulty
MCR1996 25
intermediate
e--0--------3p0-0-------0--------3p0-0-------3--------3p0-0-0h3-------|
b------------------3p1------------------3p1---------------------------|
g--------0--------------------0---------------------------------------|
d-----2--------------------2-----------------------0------------------|
a--3--------------------3-----------------------2---------------------|
E--------------------------------------------3------------------------|

e--3--------3p0-0-0h3--1--------1----------------------1--------------|
b----------------------------1-----2p0-0-0h2--------1-----------------|
g-------------------------2----------------------2--------2p0-0-0h2---|
d--------0-------------3----------------------3-----------------------|
a-----2---------------------------------------------------------------|
E--3------------------------------------------------------------------|

e--0--------3p0-0-------0--------3p0-0------|
b------------------3p1------------------3p1-|
g--------0--------------------0-------------|
d-----2--------------------2----------------|
a--3--------------------3-------------------|
E-------------------------------------------|

(repeat whole riff throughout verses)


verse 1:

        C
There's so much
G
Wrong I've done
F
Yet You still sent
C
Your only Son

Your mercy
    G
It amazes me
     F
And sometimes I wonder
C
How can it be


Chorus:

Am      G
I am forgiven
     F              C
You washed away my sin
Am           G
And You're risen
    F              C
Now You will come again
Am        G
By Your blood
F                 C
You have ransomed me
Am          G
In debt to You
F            C
I'll forever be


Verse 2:

     C
Your love is
      G
Undconditional
          F
No matter if I rise
   C
Or if I fall

Your glory
           G
Outshines everything
F
You alone
C
Are the King


Chorus:

Am       G
I am forgiven
     F              C
You washed away my sin
Am          G
And You're risen
    F              C
Now You will come again
Am        G
By Your blood
F                 C
You have ransomed me
Am          G
In debt to You
F            C
I'll forever be


Bridge (instrumental):

G G F C

G G F C

G G F C

Am Am Am F F


Intro/Verse riff:


e--0--------3p0-0-------0--------3p0-0-------3--------3p0-0-0h3-------|
b------------------3p1------------------3p1---------------------------|
g--------0--------------------0---------------------------------------|
d-----2--------------------2-----------------------0------------------|
a--3--------------------3-----------------------2---------------------|
E--------------------------------------------3------------------------|

e--3--------3p0-0-0h3--1--------1----------------------1--------------|
b----------------------------1-----2p0-0-0h2--------1-----------------|
g-------------------------2----------------------2--------2p0-0-0h2---|
d--------0-------------3----------------------3-----------------------|
a-----2---------------------------------------------------------------|
E--3------------------------------------------------------------------|

e--0--------3p0-0-------0--------3p0-0------|
b------------------3p1------------------3p1-|
g--------0--------------------0-------------|
d-----2--------------------2----------------|
a--3--------------------3-------------------|
E-------------------------------------------|

Chorus:

Am       G
I am forgiven
     F              C
You washed away my sin
Am          G
And You're risen
    F             C
Now You will come again
Am        G
By Your blood
F                 C
You have ransomed me
Am          C
In debt to You
F            C
I'll forever be
comments
We did not receive enough feedback on this tab! Please rate:
print report bad tab
1 2 3 4 5
I want to post or [tab]
guest
You may want to rate the tab now too:
select rating
Please do not post tabs as comments. Select "correction" instead!