Oops, an error
Loading. Please wait.

Nassim - Raw Hide Bass Tab

3,926 views 1 this week
no commentswrite comment
1 2 3 4 5
1 last vote to show rating
add to favorites
launch autoscroll
font size
0
reset
guitar tuner
Autoscroll
slow
fast
+/-
esc
set tempo
stop
Help us to improve Ultimate-Guitar.com Take our survey!
×
Author
Difficulty
intermediate
                    THIS TAB IS RAW HIDE BY NASSIM
                    PLEASE RATE AND COMMENT. CHEERS

MAIN RIFF/INTRO
G|------------------------------------|
D|------------------------------------|
A|-55555555-3333333-------555555-33---|  X2
E|-----------------5555555------------|
CHORAS
G|---------------------------------------|
D|---------------------------------------|
A|------------------555555-33-555555-33--| X2
E|-11111111-33333333---------------------|
MAIN RIFF
G|------------------------------------|
D|------------------------------------|
A|-55555555-3333333-------555555-33---|  X2
E|-----------------5555555------------|
CHORAS
G|---------------------------------------|
D|---------------------------------------|
A|------------------555555-33-555555-33--| X2
E|-11111111-33333333---------------------|
BRIDGE
G|--------------------------------------------|
D|--77-55-7--55-33-5--------------------------|
A|-5--------3--------77-55-77-55-77-55-77-5---| X3
E|------------------5-------------------------|

G|--------------------------------------------|
D|--77-55-7--55-33-5--------------------------|
A|-5--------3---------------------------------|
E|------------------55555-3-------------------|
MAIN RIFF
G|------------------------------------|
D|------------------------------------|
A|-55555555-3333333-------555555-33---|  X2
E|-----------------5555555------------|
CHORAS
G|---------------------------------------|
D|---------------------------------------|
A|------------------555555-33-555555-33--| X2
E|-11111111-33333333---------------------|
BRIDGE/OUTRO
G|--------------------------------------------|
D|--77-55-7--55-33-5--------------------------|
A|-5--------3--------77-55-77-55-77-55-77-5---| X3
E|------------------5-------------------------|

G|--------------------------------------------|
D|--77-55-7--55-33-5--------------------------|
A|-5--------3---------------------------------|
E|------------------55555-3-------------------|

IF YOU NEED MORE HELP WITH THIS SONG CHECKOUT MY BASS COVER OF IT.

http://www.youtube.com/watch?v=bOTM9jfZtvE

CHEERS
Suggest correction
Give kudos to tab author, rate the tab!
1 2 3 4 5
comments
print report bad tab
guest
You may want to rate the tab now too:
select rating
Wanna post a correction for this tab? Suggest correction