Oops, an error
Loading. Please wait.

Nathan Wilder - Midnight Serenade In Em Tab

106 views 1 this week
no commentswrite comment
1 2 3 4 5
please rate
add to favorites
launch autoscroll
font size
0
reset
how to read this tab
guitar tuner
Autoscroll
slow
fast
+/-
esc
set tempo
stop
Help us to improve Ultimate-Guitar.com Take our survey!
×
Author
Difficulty
intermediate
-----0---|-----0---|----------|----------|
----0-0--|----0-0--|----0---0-|----0---0-|
---0---0-|---0---0-|---0---0--|---0---0--|
---------|---------|--2-------|----------|
---------|---------|------2---|----------|
--0------|--0------|----------|--3---0---|

-----0---|-----0---|----------|----------|
----0-0--|----0-0--|----0---0-|----0---0-|
---0---0-|---0---0-|---0---0--|---0---0--|
---------|---------|--2-------|----------|
---------|---------|------2---|----------|
--0------|--0------|----------|--3---0---|

-----0---|-----0---|-----0---|----------|
----0-0--|----0-0--|----0-0--|----0---0-|
---0---0-|---0---0-|---0---0-|---0---0--|
---------|---------|---------|----------|
---------|---------|---------|----------|
--7------|--5------|--3------|--2---0---|

-----0---|-----0---|-----0---|-----0---|
----0-0--|----0-0--|----0-0--|----0-0--|
---0---0-|---0---0-|---0---0-|---0---0-|
---------|---------|---------|---------|
---------|---------|---------|---------|
--7------|--5------|--3------|--0------|

-----7---|-----5---|-----3---|----2---0-|
----0-0--|----0-0--|----0-0--|----------|
---0---0-|---0---0-|---0---0-|---0---0--|
---------|---------|---------|----------|
---------|---------|---------|----------|
--7------|--5------|--3------|--2---0---|

-----7---|-----5---|-----3---|----2---0-|
----0-0--|----0-0--|----0-0--|----------|
---0---0-|---0---0-|---0---0-|---0---0--|
---------|---------|---------|----------|
---------|---------|---------|----------|
--7------|--5------|--3------|--2---0---|

-------12-----|--------12-----|-------10-----|--------10-----|
-----12—-12---|------12—-12---|-----10—-10---|------10—-10---|
---12------12-|----12------12-|---11------11-|----11------10-|
--------------|---------------|--------------|---------------|
--------------|---------------|--0-----------|--0------------|
-0------------|--0------------|--------------|---------------|




-------12-----|--14-----12-----|-------10-----|--12-----10-----|
-----12—-12---|----12-----12---|-----10—-10---|----10-----10---|
---12------12-|------12-----12-|---11------10-|------11-----11-|
--------------|----------------|--------------|----------------|
--------------|----------------|--0-----------|----------------|
--0-----------|----------------|--------------|----------------|

-------12-----|--14-----15-----|-------10-----|--14-----12-----|
-----12—-12---|----12-----12---|-----10—-10---|----10-----10---|
---12------12-|------12-----12-|---11------11-|------11-----11-|
--------------|----------------|--------------|----------------|
--------------|----------------|--0-----------|----------------|
--0-----------|----------------|--------------|----------------|

-------12-----|--15-----12-----|-------10-----|--12-----14-----|
-----12--12---|----12-----12---|-----10--10---|----10-----10---|
---12------12-|------12-----12-|---11------11-|------11-----11-|
--------------|----------------|--------------|----------------|
--------------|----------------|--0-----------|----------------|
--0-----------|----------------|--------------|----------------|

-----7---|-----7---|-----5---|-----0---|
----8-8--|----7-7--|----5-5--|----0-0--|
---9---9-|---7---7-|---5---5-|---0---0-|
--9------|---------|---------|---------|
---------|--9------|--7------|--2------|
---------|---------|---------|---------|

-----7---|-----7---|-----5---|-----0---|
----8-8--|----7-7--|----5-5--|----0-0--|
---9---9-|---7---7-|---5---5-|---0---0-|
--9------|---------|---------|---------|
---------|--9------|--7------|--2------|
---------|---------|---------|---------|

-----7---|-----7---|--11---9---|-----2---|-----2---|-----7----|
----7-7--|----7-7--|----7---7--|----3-3--|----3-3--|----4-4---|
---8---7-|---8---8-|-----8---8-|---4---4-|---4---4-|---4---4--|
---------|---------|-----------|---------|---------|--4-----4-|
--9------|---------|-----------|--2------|---------|----------|
---------|--7------|-----------|---------|--2------|----------|	  
										2nd time Fine\/
--5---3---|--3-------|--12-----7-0-|--3---0---|----------|----------||
---4---4--|---5----5-|----12----8--|---5---0--|--0-------|----------||
----4---4-|----4--4--|------12-----|----4---0-|---0--0---|----------||
----------|------5---|-------------|----------|----2--2--|--2-------||
----------|----------|-------------|----------|--------2-|---2-2----||
----------|----------|-------------|----------|----------|----3-3-0-||




----------------------|--0---0---|----------|----------|----------|
----------------------|---0---0--|--4---4---|--2---2---|--0---0---|
----------------------|----1---1-|---4---4--|---2---2--|---1---1--|
--Mute 3 counts-------|----------|----4---4-|----2---2-|----2---2-|
--------------------2-|----------|----------|----------|----------|
----------------0-4---|----------|----------|----------|----------|

--0---0---|----------|-----------|----------|-0-2-4-2-0------|-2-4-5-2
---0---0--|--4---4---|---2---2---|--5---5---|-----------4-2-0|--------
----1---1-|---4---4--|----2---2--|---6---6--|-1-------------1|-2------
----------|----4---4-|-----2---2-|----6---6-|----------------|--------
----------|----------|-----------|----------|----------------|--------
----------|----------|-----------|----------|----------------|--------

-----|-4-5-2---------7-|--0-----|--------|--4-----|--2-----|--5-----|
--5-4|-------4/5-2/4---|----0---|--4-----|----0---|----4---|----2---|
-----|-4---------------|--1-----|----4---|------1-|--4-----|--2---2-|
-----|-----------------|------2-|--4-----|--2-----|----4---|----2---|
-----|-----------------|--------|------2-|--------|------2-|--0-----|
-----|-----------------|--------|--------|--------|--------|--------|
ritard
--2-----|--12---12---|--9----9----|--7---7---|--5---5---|--4---4---|
----4---|----9----9--|---10---10--|---9---9--|---5---5--|---5---5--|
--4-----|-----9----9-|-----9----9-|----9---9-|----6---6-|----4---4-|
--4-----|------------|------------|----------|----------|----------|
------2-|------------|------------|----------|----------|----------|
------2-|------------|------------|----------|----------|----------|
		  a tempo
--2---2---||----0---1-|----2---3-|-----7---|-----12---|------0---|
---4---4--||---0---0--|---0---0--|----0-0--|----0--0--|-----0-0--|
----4---4-||--1---1---|--1---0---|---0---0-|---0----0-|----0---0-|
----------||----------|----------|---------|----------|----------|
----------||----------|----------|---------|----------|----------|
----------||----------|----------|--0------|--0-------|--12------|
					To beginning
------0---|-----0---|----------|-----0---|-----0---|
-----0-0--|----0-0--|----0---0-|----0-0--|----0-0--|
----0---0-|---0---0-|---0---0--|---0---0-|---0---0-|
----------|---------|----------|---------|---------|
----------|---------|----------|---------|---------|
--10------|--8------|--7---5---|--3------|--2------|
Suggest correction
Give kudos to tab author, rate the tab!
1 2 3 4 5
comments
print report bad tab
guest
You may want to rate the tab now too:
select rating
Please do not post tabs as comments. Select "correction" instead!