Oops, an error
Loading. Please wait.

Nhk Ni Yokoso - Odoru Akachan Ningen Tab

1,582 views 3 this week
no commentswrite comment
1 2 3 4 5
please rate
add to favorites
launch autoscroll
font size
0
reset
how to read this tab
guitar tuner
Autoscroll
slow
fast
+/-
esc
set tempo
stop
Help us to improve Ultimate-Guitar.com Take our survey!
×
Author
intro
----------------------------------------------------------------------------|
----------------------------------------------------------------------------|
-7-----------------------2----4----5----6----7----------8---------9-9-9-9-9-|
-5------------6----------2----4----5----6----7----------8---------9-9-9-9-9-|..
-5------------6----------0----2----3----4----5----------6---------7-7-7-7-7-|
--------------4-------------------------------------------------------------|

__________
ababa baba baba odoru akachan ningen (n'gya)
__________

------12-11---15-------17-|
-7/10------------16-17----|
--------------------------|
--------------------------|
--------------------------|
--------------------------|

-----------------------------------------------------------------------------------------|
-----------------------------------------------------------------------------------------|
-----------------------------------------------------------------------------------------|
-7-----7-7-7---7-7------6-----6-6-6--6-6--------5-----5-5-5--5-5--------4-----4-4-4--4-4-|
-7-----7-7-5---7-7------6-----6-6-6--6-6--------5-----5-5-5--5-5--------4-----4-4-4--4-4-|
-5-----5-5-5---5-5------4-----4-4-4--4-4--------3-----3-3-3--3-3--------2-----2-2-2--2-2-|
 Hito wa hadaka de      umareta toki  wa        daremo    aisare        onaji na hazu ga


----------------------------------------------------------------------------------------|
----------------------------------------------------------------------------------------|
------------------------5---5---5----5------------7---7---7---7----------9-9-9-9-9-9-9--|
-3-----3-3-3--3-3-------5---5---5----5------------7---7---7---7----------9-9-9-9-9-9-9--|
-3-----3-3-3--3-3-------3---3---3----3------------5---5---5---5----------7-7-7-7-7-7-7--|
-1-----1-1-1--1-1-----------------------------------------------------------------------|
Doushite    nanoda      i-kite-iku u-chi          Sadame wa wakare       mugoi kurai da

___________


--------------------------------------------------------------------------|
--------------------------------------------------------------------------|
-10--10---------5------2-3-3-4-4-5-6-6--7-----7/10---10/13------7-7-7-7-7-|
-10--8----------5------2-3-3-4-4-5-6-6--7-----7/10---10/13------7-7-7-7-7-|
-8---8----------3------0-1-1-2-2-3-4-4--5-----5/8----8/11-------5-5-5-5-5-|
--------------------------------------------------------------------------|
A~nante         ka-wai-i baby           aishi-taku naru-        wa

___________
-------------------------------------------------------------------------|
-------------------------------------------------------------------------|
----------------7-----7/11--9--9--9----10--7-----------------------------|
--7----7-11-----7-----7/11--9--9--9----10--7-----------------------------|
--7----7-11-----5------5/8--7--7--7----8---5-----------------------------|
--5----5-8---------------------------------------------------------------|
Kanojo daita akago jitsu wa a-ka-chan nin-gen

---------------------------------------------------------------------------|
---------------------------------------------------------------------------|
14-14-14----10-10-10----7--7--7----------10--10-10-------9---7----5--4--2--|
12-12-12----10-10-10----7--7--7----------10--10-10-------9---7----5--4--2--|
12-12-12----8--8--8-----5--5--5----------8---8--8--------7---5----3--2--0--|
---------------------------------------------------------------------------|
Ki-mi-mo    na-re-yo    ra-ku-de         i-  i- ze-------------------------|       ba- by   hu-ma-n


------------------------------------------------------------------------|
------------------------------------------------------------------------|
2--2--2---------5--5--5---------7--7--7--10-10-10--------9--7--5--4--2--|
2--2--2---------5--5--5---------7--7--7--10-10-10--------9--7--5--4--2--|
0--0--0---------3--3--3---------5--5--5---8--8--8--------7--5--3--2--0--|
------------------------------------------------------------------------|
A-ba-ba         a-ba-ba         o-do-re  fu-ya-se-----------------------|       so-shi-te u-chuu e

---------|
---------|
---------| repeat X8
10--10/7-|
10--10/7-|
8---8-/5-|
Ka-sei e
Suggest correction
What's this?
You can suggest a correction to this tab. Community and Mods will review your correction and vote to approve or reject it.
comments
We did not receive enough feedback on this tab! Please rate:
print report bad tab
1 2 3 4 5
guest
You may want to rate the tab now too:
select rating
Please do not post tabs as comments. Select "correction" instead!