Oops, an error
Loading. Please wait.

Nicholas Jacquet - Nocturne In E Minor Tab

142 views 1 this week
no commentswrite comment
1 2 3 4 5
please rate
add to favorites
launch autoscroll
font size
0
reset
how to read this tab
guitar tuner
Autoscroll
slow
fast
+/-
esc
set tempo
stop
Help us to improve Ultimate-Guitar.com Take our survey!
×
Nocturne In E minor

~original composition by Nicholas Jacquet~
11/25/11 


4/4
e|-0------0------0-------0--------------|-0------0------0-----0------|
B|---0-0----0-0----0-0-----0-0----------|---0-0----0-0---0-0----0-0--|
G|----0------0------0-------0-----------|----0------0-----0------0--o|
D|-2------------------------------------|---------------------------o|
A|--------5------3-------2--------------|----------------------------|
E|-bass-notes-are-quarter-soprano=16ths-|-5------3------2-----0------|
 
   e e      q   sss s+q
e|-0---------------------|---------------------------------|
B|--------------5^7^5----|--5-7-8-10-8-7-------7-----------|
G|-5-4~--(5)/7--------8~-|-8-------------9-8-9---9-8-9-8---|
D|-----------------------|------------------------------10-|
A|-----------------------|---------------------------------|
E|-0------------0--------|-----16th-notes------------------|

                                q
e|------------------------------0~--|---------------------------|
B|-twelve-sixteenth-------------0~--|-16ths-but-sustain---------|
G|------notes-------------------0~--|----------the-slured-------|
D|-9-7-------7-9-7------------------|----------D#-&-C-for-rest--|
A|----10-9-10-----10-9-10-9---------|-6^7^6------of-measure-----|
E|----------------------------------|-------8-------------------|

  e e    ssss ssss ssss              q  q  half  6/8  eee eee      eee eee
e|--------------------------------|---------7~-|----------------|----------|
B|-------------------------7-8-10-|-10-10---8~-|----8-----------|-8--------|
G|----------------------8-9-------|--8--8---9~-|------6-------6-|---5----5-|
D|---------------7-9-10-----------|-10-10---9~-|--------8---8---|-----8-8--|
A|------6/7-9-10------------------|--9--9---7~-|----7-----7-----|-7----7---|
E|-7-8----------------------------|---------0~-|----------------|----------|
  eee eee       eee eee       eee   eee      eee   eee    eee  eee 
e|-------------|-------------|-------------|-------------|-------------|
B|-6-----------|-5-----------|-5-----------|-5-----------|-7-----------|
G|---4-------4-|---4-------4-|---2-------2-|---3-------3-|---7-------7-|
D|-----6---6---|-----5---5---|-----4---4---|-----5---5---|-----9---9---|
A|-5-----5-----|-4-----4-----|-3-----3-----|-4-----4-----|-------9-----|
E|-------------|-------------|-------------|-------------|-7-----------|
  eee eee       eee   eee     eee  eee       eee eee
e|-------------|-------------|-------------|-------------|
B|-------------|-0-----------|-8-----------|-8-----------|
G|-6---------6-|---0-------2-|---6-------6-|---5-------5-|
D|---7-4---7---|-----0---4---|-----8---8---|-----8---8---|
A|-------4-----|-------4-----|-7-----7-----|-7-----7-----|
E|-5-----------|-3-----------|-------------|-------------|
  eee   eee     eee   eee      eee  eee       eee  eee       eee eee
e|-------------|-------------|-------------|-------------|-------------|
B|-6-----------|-5-----------|-5-----------|-5-----------|-7-----------|
G|---4-------4-|---4-------4-|---2-------2-|---3-------3-|---8-------8-|
D|-----6---6---|-----5---5---|-----4---4---|-----5---5---|-----9---9---|
A|-5-----5-----|-4-----4-----|-3-----3-----|-4-----4-----|-------9-----|
E|-------------|-------------|-------------|-------------|-7-----------|

4/4
e|-0------0------0-------0--------------|-0------0------0-----0------|
B|---0-0----0-0----0-0-----0-0----------|---0-0----0-0---0-0----0-0--|
G|----0------0------0-------0-----------|----0------0-----0------0--o|
D|-2------------------------------------|---------------------------o|
A|--------5------3-------2--------------|----------------------------|
E|-bass-notes-are-quarter-soprano=16ths-|-5------3------2-----0------|
                                         2/4  
e|-0---------0---------0--------0-------|--0---------0--------|
B|---0---0-----0---0-----0--0-----0---0-|----0---0-----0---0--|
G|-----0---------0---------0--------0---|------0---------0----|
D|-2------------------------------------|---------------------|
A|-----------5---------3--------2-------|---------------------|
E|-bass-notes-are-quarter-soprano=16ths-|--5---------3--------|

12/8
  eee eee eee        doted Q   eee     eee     eee  dotted Q   
e|------------------------2~-|-0-------0-------0------------|
B|-------------0---2~--------|---0-------0-------0----------|
G|-------0---0---0-----------|-----0-------0-------0--------|
D|-----4---4-----------------|---------2--------------------|
A|---4-----------------------|-2---------------2------------|
E|-0~------------------------|-------------------------0~---|
Suggest correction
Give kudos to tab author, rate the tab!
1 2 3 4 5
comments
print report bad tab
guest
You may want to rate the tab now too:
select rating
Wanna post a correction for this tab? Suggest correction