Oops, an error
Loading. Please wait.

Nicholas Jacquet - The Beast Approacheth Tab

82 views 1 this week
no commentswrite comment
1 2 3 4 5
please rate
add to favorites
launch autoscroll
font size
0
reset
how to read this tab
guitar tuner
Autoscroll
slow
fast
+/-
esc
set tempo
stop
Help us to improve Ultimate-Guitar.com Take our survey!
×
Contributor
Difficulty
Tuning
advanced
D A D G B E
---------------------------------------------------------
                  The Beast Approacheth
---------------------------------------------------------

Tabbed,Composed,and Arranged by: Nicholas Jacquet 5/20/11
Email: nickjacquet@yahoo.com

Tuning: DADGBE
Key: D Locrian
Meter: 4/4
122 BPM

Intro Riff:
         ee        ee        ee        ee
e|------------------------------------------|
B|------------------------------------------|
G|triplet---triplet---triplet---triplet-----|
D|-------5/6-------3/5-------5/6-------8/5--|
A|-------5/6-------3/5-------5/6-------8/5--|
D|-0-0-0-----0-0-0-----0-0-0-----0-0-0------|

Riff 1:

 s  s  s  s  s  s  s  s  s  s  s  s  s  s  s  s
e|---------------------------------------------|
B|---------------------------------------------|
G|---------------------------------------------|
D|---------------------------------------------|
A|---------------------------------10-11-13-11-|
D|-0-10-12-13-12-10-0-10-0-10-12-13------------|
   x                x    x  
 s  s  s  s  s  s  s  s  s  s  s  s  s  s  s  s
e|--------------------------------------------|
B|--------------------------------------------|
G|--------------------------------10-12-13-12-|
D|---------------------------12-13------------|
A|----------------------11-10-----------------|
D|-0-10-12-13-12-10-0-12----------------------|
   x                x 

Riff 2:

 s s s s s s s s s s s s s s s s s s s s s s s s s s s s s s s s
e|-----------------------------|-----------------------------|
B|-----------------------------|-----------------------------|
G|-----------------------------|-----------------------------|
D|--------------5------------3-|--------------6-5------------|
A|--------3-5-6---6-5-3-5-6-5-5|--------6-5--5---6-5-6-8-6-5-|
D|-6-0-3-5---------------------|-6-0-3/5---8-----------------|
   x x x x                       x x       x  

Chorus Riff in 5/4:(written for two guitars with same rhythm)

Guitar 1:
 triplet      
(e sss e+s sss sss s+e 8th rest)<-Rhythm of all chorus measures (G1&2)   
e|--------------------------|--------------------------|
B|--------------------------|--------------------------|
G|--------------------------|--------------------------|
D|--8-------0~------3-5-6-5~|-8-------0~-6-5-3---------|
A|--8-------0~-3-5-6--------|-8-------0~------6-5-3-5~-|
D|--8-0-0-0-0~--------------|-8-0-0-0-0~---------------|
      x x x                     x x x

Guitar 2:

e|-------------------13-15-16-15~|----------16-15-13-------------|
B|-----------13-15-16------------|------------------16-15-13-15~-|
G|-------------------------------|-------------------------------|
D|--8-------0~-------------------|-8-------0~--------------------|
A|--8-------0~-------------------|-8-------0~--------------------|
D|--8-0-0-0-0~-------------------|-8-0-0-0-0~--------------------|
      x x x                          x x x 

Guitar Solo: Back in 4/4 meter

  s s s s s s s s s s s s s s s s 
e|------------------------------------|
B|----play this measure three times---|
G|------------------------------------|
D|12-0-13-0-12-0-10-0-8-0-10-0-7-0-8-0|
A|------------------------------------|
D|------------------------------------|

  s s s s s s s s s s s s s s s s
e|---------------------------------------|
B|---------------------------------------|
G|---------------------------------------|
D|13-0-12-0-15-0-13-0-17-0-15-0-18-0-17-0|  
A|---------------------------------------|
D|---------------------------------------|

s  s  s  s  s  s  s  s  s  s  s  s  s  s  s  s
e|---------------------------------------------|
B|---------------------------------------------|
G|----------------------------------12-13-13-10|
D|-----------------------12-13-12-10-----------|
A|------------13-11-10-11----------------------|
D|-10-12-13-12---------------------------------|

   s  s  s  s  s  s  s  s  16th note sextuplets for rest of solo 
e|------------------------(16-15-13--------16-15-13---------|
B|-15-13-12-13-15-16-15-13---------16-15-13--------16-15-13)|
G|----------------------------------------------------------|
D|----------------------------------------------------------|
A|----------------------------------------------------------|
D|----------------------------------------------------------|

e|-------------------------------------------------|
B|-------------------------------------------------|
G|-------------------------------------------------|
D|-------------------------------------------------|
A|-----5-6-8-8-6-5-------------6-8-10--------6-8-10|
D|5-6-8-----------8-6-5-6-8-10--------6-8-10-------|

e|---------------------------------------------------------------|
B|---------------------------------------------------------------|
G|---------------------------------------------------------------|
D|-------8-10-11-11-10-8----------------10-11-13---------10-11-13|
A|8-10-11---------------11-10-8-10-11-13---------10-11-13--------|
D|---------------------------------------------------------------|

e|--------------------------------------------------------------------|
B|--------------------------------------------------------------------|
G|--------12-13-15-15-13-12------------------15-17-18---------15-17-18|
D|12-13-15------------------15-13-12-15-17-18---------15-17-18--------|
A|--------------------------------------------------------------------|
D|--------------------------------------------------------------------|
                                                                        w
e|------------------------------------------13-15-16---------13-15-16|-15---|
B|---------------------------------13-15-16----------13-15-16--------|-16BR-|
G|--------17-19-20-20-19-17------------------------------------------|------|
D|17-18-20-----------------20-18-17----------------------------------|------|
A|-------------------------------------------------------------------|------|
D|-------------------------------------------------------------------|------|
 
-End solo-

Outro Measure:

   w
e|-----|
B|-----|
G|-----|
D|-0~--|
A|-0~--|
D|-0~--|

Riff Legend:

Intro Riff x2
Riff 1 x3
Riff 2 x2
Chorus Riff x2
Riff 1 x3
Riff 2 x2
Chorus Riff x2
(Guitar Solo)
Chorus Riff x2
Riff 1 x2
Outro Measure x1

************************************
Duration/Tab Symbols Legend

e= eight notes
s= sixteenth notes
triplet=triplets 
+ = ties
w=whole note

| x   palm mute
| /   slide up
| \   slide down
| h   hammer-on
| p   pull-off
| ~   vibrato
| b   Bend
| br  Bend release


************************************
comments
We did not receive enough feedback on this tab! Please rate:
print report bad tab
1 2 3 4 5
I want to post or [tab]
guest
You may want to rate the tab now too:
select rating
Please do not post tabs as comments. Select "correction" instead!